ISO-10303-21;
HEADER;
/* Generated by software containing ST-Developer
 * from STEP Tools, Inc. (www.steptools.com) 
 */

FILE_DESCRIPTION(
/* description */ (''),
/* implementation_level */ '2;1');

FILE_NAME(
/* name */ 
'Z:/Modular Solution/A-Profile System/Parts/30 Series/32-9090M12-0/32-
9090M12S-0.step',
/* time_stamp */ '2022-07-12T11:42:47-04:00',
/* author */ (''),
/* organization */ (''),
/* preprocessor_version */ 'ST-DEVELOPER v19',
/* originating_system */ 'Autodesk Translation Framework v11.7.0.108',
/* authorisation */ '');

FILE_SCHEMA (('AUTOMOTIVE_DESIGN { 1 0 10303 214 3 1 1 }'));
ENDSEC;

DATA;
#10=MECHANICAL_DESIGN_GEOMETRIC_PRESENTATION_REPRESENTATION('',(#13),#518);
#11=SHAPE_REPRESENTATION_RELATIONSHIP('SRR','None',#525,#12);
#12=ADVANCED_BREP_SHAPE_REPRESENTATION('',(#14),#517);
#13=STYLED_ITEM('',(#535),#14);
#14=MANIFOLD_SOLID_BREP('Body1',#298);
#15=FACE_BOUND('',#49,.T.);
#16=FACE_BOUND('',#50,.T.);
#17=FACE_BOUND('',#51,.T.);
#18=FACE_BOUND('',#52,.T.);
#19=FACE_BOUND('',#53,.T.);
#20=FACE_BOUND('',#59,.T.);
#21=FACE_BOUND('',#60,.T.);
#22=FACE_BOUND('',#61,.T.);
#23=FACE_BOUND('',#62,.T.);
#24=FACE_BOUND('',#63,.T.);
#25=PLANE('',#315);
#26=PLANE('',#316);
#27=PLANE('',#327);
#28=PLANE('',#332);
#29=PLANE('',#343);
#30=PLANE('',#344);
#31=FACE_OUTER_BOUND('',#46,.T.);
#32=FACE_OUTER_BOUND('',#47,.T.);
#33=FACE_OUTER_BOUND('',#48,.T.);
#34=FACE_OUTER_BOUND('',#54,.T.);
#35=FACE_OUTER_BOUND('',#55,.T.);
#36=FACE_OUTER_BOUND('',#56,.T.);
#37=FACE_OUTER_BOUND('',#57,.T.);
#38=FACE_OUTER_BOUND('',#58,.T.);
#39=FACE_OUTER_BOUND('',#64,.T.);
#40=FACE_OUTER_BOUND('',#65,.T.);
#41=FACE_OUTER_BOUND('',#66,.T.);
#42=FACE_OUTER_BOUND('',#67,.T.);
#43=FACE_OUTER_BOUND('',#68,.T.);
#44=FACE_OUTER_BOUND('',#69,.T.);
#45=FACE_OUTER_BOUND('',#70,.T.);
#46=EDGE_LOOP('',(#196,#197,#198,#199));
#47=EDGE_LOOP('',(#200,#201,#202,#203));
#48=EDGE_LOOP('',(#204,#205,#206,#207,#208,#209,#210,#211));
#49=EDGE_LOOP('',(#212));
#50=EDGE_LOOP('',(#213));
#51=EDGE_LOOP('',(#214));
#52=EDGE_LOOP('',(#215));
#53=EDGE_LOOP('',(#216));
#54=EDGE_LOOP('',(#217,#218,#219,#220));
#55=EDGE_LOOP('',(#221,#222,#223,#224));
#56=EDGE_LOOP('',(#225,#226,#227,#228));
#57=EDGE_LOOP('',(#229,#230,#231,#232));
#58=EDGE_LOOP('',(#233,#234,#235,#236,#237,#238,#239,#240));
#59=EDGE_LOOP('',(#241));
#60=EDGE_LOOP('',(#242));
#61=EDGE_LOOP('',(#243));
#62=EDGE_LOOP('',(#244));
#63=EDGE_LOOP('',(#245));
#64=EDGE_LOOP('',(#246,#247,#248,#249));
#65=EDGE_LOOP('',(#250,#251,#252,#253));
#66=EDGE_LOOP('',(#254,#255,#256,#257));
#67=EDGE_LOOP('',(#258,#259,#260,#261));
#68=EDGE_LOOP('',(#262,#263,#264,#265));
#69=EDGE_LOOP('',(#266,#267,#268,#269));
#70=EDGE_LOOP('',(#270,#271,#272,#273));
#71=LINE('',#440,#92);
#72=LINE('',#443,#93);
#73=LINE('',#446,#94);
#74=LINE('',#448,#95);
#75=LINE('',#449,#96);
#76=LINE('',#452,#97);
#77=LINE('',#456,#98);
#78=LINE('',#460,#99);
#79=LINE('',#476,#100);
#80=LINE('',#477,#101);
#81=LINE('',#480,#102);
#82=LINE('',#481,#103);
#83=LINE('',#485,#104);
#84=LINE('',#489,#105);
#85=LINE('',#491,#106);
#86=LINE('',#492,#107);
#87=LINE('',#504,#108);
#88=LINE('',#506,#109);
#89=LINE('',#508,#110);
#90=LINE('',#510,#111);
#91=LINE('',#512,#112);
#92=VECTOR('',#351,10.);
#93=VECTOR('',#354,10.);
#94=VECTOR('',#357,10.);
#95=VECTOR('',#358,10.);
#96=VECTOR('',#359,10.);
#97=VECTOR('',#362,10.);
#98=VECTOR('',#365,10.);
#99=VECTOR('',#368,10.);
#100=VECTOR('',#385,10.);
#101=VECTOR('',#386,10.);
#102=VECTOR('',#389,10.);
#103=VECTOR('',#390,10.);
#104=VECTOR('',#395,10.);
#105=VECTOR('',#400,10.);
#106=VECTOR('',#403,10.);
#107=VECTOR('',#404,10.);
#108=VECTOR('',#417,4.5);
#109=VECTOR('',#420,6.);
#110=VECTOR('',#423,4.5);
#111=VECTOR('',#426,4.5);
#112=VECTOR('',#429,4.5);
#113=CIRCLE('',#313,1.508);
#114=CIRCLE('',#314,1.508);
#115=CIRCLE('',#317,1.508);
#116=CIRCLE('',#318,1.508);
#117=CIRCLE('',#319,1.508);
#118=CIRCLE('',#320,4.5);
#119=CIRCLE('',#321,4.5);
#120=CIRCLE('',#322,4.5);
#121=CIRCLE('',#323,6.);
#122=CIRCLE('',#324,4.5);
#123=CIRCLE('',#326,1.508);
#124=CIRCLE('',#329,1.508);
#125=CIRCLE('',#331,1.508);
#126=CIRCLE('',#333,4.5);
#127=CIRCLE('',#334,4.5);
#128=CIRCLE('',#335,4.5);
#129=CIRCLE('',#336,6.);
#130=CIRCLE('',#337,4.5);
#131=VERTEX_POINT('',#436);
#132=VERTEX_POINT('',#437);
#133=VERTEX_POINT('',#439);
#134=VERTEX_POINT('',#441);
#135=VERTEX_POINT('',#445);
#136=VERTEX_POINT('',#447);
#137=VERTEX_POINT('',#451);
#138=VERTEX_POINT('',#453);
#139=VERTEX_POINT('',#455);
#140=VERTEX_POINT('',#457);
#141=VERTEX_POINT('',#459);
#142=VERTEX_POINT('',#462);
#143=VERTEX_POINT('',#464);
#144=VERTEX_POINT('',#466);
#145=VERTEX_POINT('',#468);
#146=VERTEX_POINT('',#470);
#147=VERTEX_POINT('',#473);
#148=VERTEX_POINT('',#474);
#149=VERTEX_POINT('',#479);
#150=VERTEX_POINT('',#483);
#151=VERTEX_POINT('',#487);
#152=VERTEX_POINT('',#493);
#153=VERTEX_POINT('',#495);
#154=VERTEX_POINT('',#497);
#155=VERTEX_POINT('',#499);
#156=VERTEX_POINT('',#501);
#157=EDGE_CURVE('',#131,#132,#113,.T.);
#158=EDGE_CURVE('',#132,#133,#71,.T.);
#159=EDGE_CURVE('',#133,#134,#114,.T.);
#160=EDGE_CURVE('',#134,#131,#72,.T.);
#161=EDGE_CURVE('',#135,#134,#73,.T.);
#162=EDGE_CURVE('',#136,#135,#74,.T.);
#163=EDGE_CURVE('',#131,#136,#75,.T.);
#164=EDGE_CURVE('',#133,#137,#76,.T.);
#165=EDGE_CURVE('',#138,#137,#115,.T.);
#166=EDGE_CURVE('',#138,#139,#77,.T.);
#167=EDGE_CURVE('',#140,#139,#116,.T.);
#168=EDGE_CURVE('',#140,#141,#78,.T.);
#169=EDGE_CURVE('',#135,#141,#117,.T.);
#170=EDGE_CURVE('',#142,#142,#118,.T.);
#171=EDGE_CURVE('',#143,#143,#119,.T.);
#172=EDGE_CURVE('',#144,#144,#120,.T.);
#173=EDGE_CURVE('',#145,#145,#121,.T.);
#174=EDGE_CURVE('',#146,#146,#122,.T.);
#175=EDGE_CURVE('',#147,#148,#123,.T.);
#176=EDGE_CURVE('',#148,#138,#79,.T.);
#177=EDGE_CURVE('',#137,#147,#80,.T.);
#178=EDGE_CURVE('',#149,#148,#81,.T.);
#179=EDGE_CURVE('',#139,#149,#82,.T.);
#180=EDGE_CURVE('',#149,#150,#124,.T.);
#181=EDGE_CURVE('',#150,#140,#83,.T.);
#182=EDGE_CURVE('',#151,#136,#125,.T.);
#183=EDGE_CURVE('',#141,#151,#84,.T.);
#184=EDGE_CURVE('',#151,#150,#85,.T.);
#185=EDGE_CURVE('',#147,#132,#86,.T.);
#186=EDGE_CURVE('',#152,#152,#126,.T.);
#187=EDGE_CURVE('',#153,#153,#127,.T.);
#188=EDGE_CURVE('',#154,#154,#128,.T.);
#189=EDGE_CURVE('',#155,#155,#129,.T.);
#190=EDGE_CURVE('',#156,#156,#130,.T.);
#191=EDGE_CURVE('',#156,#146,#87,.T.);
#192=EDGE_CURVE('',#155,#145,#88,.T.);
#193=EDGE_CURVE('',#154,#144,#89,.T.);
#194=EDGE_CURVE('',#153,#143,#90,.T.);
#195=EDGE_CURVE('',#152,#142,#91,.T.);
#196=ORIENTED_EDGE('',*,*,#157,.T.);
#197=ORIENTED_EDGE('',*,*,#158,.T.);
#198=ORIENTED_EDGE('',*,*,#159,.T.);
#199=ORIENTED_EDGE('',*,*,#160,.T.);
#200=ORIENTED_EDGE('',*,*,#160,.F.);
#201=ORIENTED_EDGE('',*,*,#161,.F.);
#202=ORIENTED_EDGE('',*,*,#162,.F.);
#203=ORIENTED_EDGE('',*,*,#163,.F.);
#204=ORIENTED_EDGE('',*,*,#159,.F.);
#205=ORIENTED_EDGE('',*,*,#164,.T.);
#206=ORIENTED_EDGE('',*,*,#165,.F.);
#207=ORIENTED_EDGE('',*,*,#166,.T.);
#208=ORIENTED_EDGE('',*,*,#167,.F.);
#209=ORIENTED_EDGE('',*,*,#168,.T.);
#210=ORIENTED_EDGE('',*,*,#169,.F.);
#211=ORIENTED_EDGE('',*,*,#161,.T.);
#212=ORIENTED_EDGE('',*,*,#170,.T.);
#213=ORIENTED_EDGE('',*,*,#171,.T.);
#214=ORIENTED_EDGE('',*,*,#172,.T.);
#215=ORIENTED_EDGE('',*,*,#173,.T.);
#216=ORIENTED_EDGE('',*,*,#174,.T.);
#217=ORIENTED_EDGE('',*,*,#175,.T.);
#218=ORIENTED_EDGE('',*,*,#176,.T.);
#219=ORIENTED_EDGE('',*,*,#165,.T.);
#220=ORIENTED_EDGE('',*,*,#177,.T.);
#221=ORIENTED_EDGE('',*,*,#176,.F.);
#222=ORIENTED_EDGE('',*,*,#178,.F.);
#223=ORIENTED_EDGE('',*,*,#179,.F.);
#224=ORIENTED_EDGE('',*,*,#166,.F.);
#225=ORIENTED_EDGE('',*,*,#180,.T.);
#226=ORIENTED_EDGE('',*,*,#181,.T.);
#227=ORIENTED_EDGE('',*,*,#167,.T.);
#228=ORIENTED_EDGE('',*,*,#179,.T.);
#229=ORIENTED_EDGE('',*,*,#182,.T.);
#230=ORIENTED_EDGE('',*,*,#162,.T.);
#231=ORIENTED_EDGE('',*,*,#169,.T.);
#232=ORIENTED_EDGE('',*,*,#183,.T.);
#233=ORIENTED_EDGE('',*,*,#157,.F.);
#234=ORIENTED_EDGE('',*,*,#163,.T.);
#235=ORIENTED_EDGE('',*,*,#182,.F.);
#236=ORIENTED_EDGE('',*,*,#184,.T.);
#237=ORIENTED_EDGE('',*,*,#180,.F.);
#238=ORIENTED_EDGE('',*,*,#178,.T.);
#239=ORIENTED_EDGE('',*,*,#175,.F.);
#240=ORIENTED_EDGE('',*,*,#185,.T.);
#241=ORIENTED_EDGE('',*,*,#186,.T.);
#242=ORIENTED_EDGE('',*,*,#187,.T.);
#243=ORIENTED_EDGE('',*,*,#188,.T.);
#244=ORIENTED_EDGE('',*,*,#189,.T.);
#245=ORIENTED_EDGE('',*,*,#190,.T.);
#246=ORIENTED_EDGE('',*,*,#190,.F.);
#247=ORIENTED_EDGE('',*,*,#191,.T.);
#248=ORIENTED_EDGE('',*,*,#174,.F.);
#249=ORIENTED_EDGE('',*,*,#191,.F.);
#250=ORIENTED_EDGE('',*,*,#189,.F.);
#251=ORIENTED_EDGE('',*,*,#192,.T.);
#252=ORIENTED_EDGE('',*,*,#173,.F.);
#253=ORIENTED_EDGE('',*,*,#192,.F.);
#254=ORIENTED_EDGE('',*,*,#188,.F.);
#255=ORIENTED_EDGE('',*,*,#193,.T.);
#256=ORIENTED_EDGE('',*,*,#172,.F.);
#257=ORIENTED_EDGE('',*,*,#193,.F.);
#258=ORIENTED_EDGE('',*,*,#187,.F.);
#259=ORIENTED_EDGE('',*,*,#194,.T.);
#260=ORIENTED_EDGE('',*,*,#171,.F.);
#261=ORIENTED_EDGE('',*,*,#194,.F.);
#262=ORIENTED_EDGE('',*,*,#186,.F.);
#263=ORIENTED_EDGE('',*,*,#195,.T.);
#264=ORIENTED_EDGE('',*,*,#170,.F.);
#265=ORIENTED_EDGE('',*,*,#195,.F.);
#266=ORIENTED_EDGE('',*,*,#181,.F.);
#267=ORIENTED_EDGE('',*,*,#184,.F.);
#268=ORIENTED_EDGE('',*,*,#183,.F.);
#269=ORIENTED_EDGE('',*,*,#168,.F.);
#270=ORIENTED_EDGE('',*,*,#158,.F.);
#271=ORIENTED_EDGE('',*,*,#185,.F.);
#272=ORIENTED_EDGE('',*,*,#177,.F.);
#273=ORIENTED_EDGE('',*,*,#164,.F.);
#274=CYLINDRICAL_SURFACE('',#312,1.508);
#275=CYLINDRICAL_SURFACE('',#325,1.508);
#276=CYLINDRICAL_SURFACE('',#328,1.508);
#277=CYLINDRICAL_SURFACE('',#330,1.508);
#278=CYLINDRICAL_SURFACE('',#338,4.5);
#279=CYLINDRICAL_SURFACE('',#339,6.);
#280=CYLINDRICAL_SURFACE('',#340,4.5);
#281=CYLINDRICAL_SURFACE('',#341,4.5);
#282=CYLINDRICAL_SURFACE('',#342,4.5);
#283=ADVANCED_FACE('',(#31),#274,.T.);
#284=ADVANCED_FACE('',(#32),#25,.F.);
#285=ADVANCED_FACE('',(#33,#15,#16,#17,#18,#19),#26,.T.);
#286=ADVANCED_FACE('',(#34),#275,.T.);
#287=ADVANCED_FACE('',(#35),#27,.F.);
#288=ADVANCED_FACE('',(#36),#276,.T.);
#289=ADVANCED_FACE('',(#37),#277,.T.);
#290=ADVANCED_FACE('',(#38,#20,#21,#22,#23,#24),#28,.F.);
#291=ADVANCED_FACE('',(#39),#278,.F.);
#292=ADVANCED_FACE('',(#40),#279,.F.);
#293=ADVANCED_FACE('',(#41),#280,.F.);
#294=ADVANCED_FACE('',(#42),#281,.F.);
#295=ADVANCED_FACE('',(#43),#282,.F.);
#296=ADVANCED_FACE('',(#44),#29,.F.);
#297=ADVANCED_FACE('',(#45),#30,.F.);
#298=CLOSED_SHELL('',(#283,#284,#285,#286,#287,#288,#289,#290,#291,#292,
#293,#294,#295,#296,#297));
#299=DERIVED_UNIT_ELEMENT(#301,1.);
#300=DERIVED_UNIT_ELEMENT(#520,-3.);
#301=(
MASS_UNIT()
NAMED_UNIT(*)
SI_UNIT(.KILO.,.GRAM.)
);
#302=DERIVED_UNIT((#299,#300));
#303=MEASURE_REPRESENTATION_ITEM('density measure',
POSITIVE_RATIO_MEASURE(7850.),#302);
#304=PROPERTY_DEFINITION_REPRESENTATION(#309,#306);
#305=PROPERTY_DEFINITION_REPRESENTATION(#310,#307);
#306=REPRESENTATION('material name',(#308),#517);
#307=REPRESENTATION('density',(#303),#517);
#308=DESCRIPTIVE_REPRESENTATION_ITEM('Steel','Steel');
#309=PROPERTY_DEFINITION('material property','material name',#527);
#310=PROPERTY_DEFINITION('material property','density of part',#527);
#311=AXIS2_PLACEMENT_3D('placement',#434,#345,#346);
#312=AXIS2_PLACEMENT_3D('',#435,#347,#348);
#313=AXIS2_PLACEMENT_3D('',#438,#349,#350);
#314=AXIS2_PLACEMENT_3D('',#442,#352,#353);
#315=AXIS2_PLACEMENT_3D('',#444,#355,#356);
#316=AXIS2_PLACEMENT_3D('',#450,#360,#361);
#317=AXIS2_PLACEMENT_3D('',#454,#363,#364);
#318=AXIS2_PLACEMENT_3D('',#458,#366,#367);
#319=AXIS2_PLACEMENT_3D('',#461,#369,#370);
#320=AXIS2_PLACEMENT_3D('',#463,#371,#372);
#321=AXIS2_PLACEMENT_3D('',#465,#373,#374);
#322=AXIS2_PLACEMENT_3D('',#467,#375,#376);
#323=AXIS2_PLACEMENT_3D('',#469,#377,#378);
#324=AXIS2_PLACEMENT_3D('',#471,#379,#380);
#325=AXIS2_PLACEMENT_3D('',#472,#381,#382);
#326=AXIS2_PLACEMENT_3D('',#475,#383,#384);
#327=AXIS2_PLACEMENT_3D('',#478,#387,#388);
#328=AXIS2_PLACEMENT_3D('',#482,#391,#392);
#329=AXIS2_PLACEMENT_3D('',#484,#393,#394);
#330=AXIS2_PLACEMENT_3D('',#486,#396,#397);
#331=AXIS2_PLACEMENT_3D('',#488,#398,#399);
#332=AXIS2_PLACEMENT_3D('',#490,#401,#402);
#333=AXIS2_PLACEMENT_3D('',#494,#405,#406);
#334=AXIS2_PLACEMENT_3D('',#496,#407,#408);
#335=AXIS2_PLACEMENT_3D('',#498,#409,#410);
#336=AXIS2_PLACEMENT_3D('',#500,#411,#412);
#337=AXIS2_PLACEMENT_3D('',#502,#413,#414);
#338=AXIS2_PLACEMENT_3D('',#503,#415,#416);
#339=AXIS2_PLACEMENT_3D('',#505,#418,#419);
#340=AXIS2_PLACEMENT_3D('',#507,#421,#422);
#341=AXIS2_PLACEMENT_3D('',#509,#424,#425);
#342=AXIS2_PLACEMENT_3D('',#511,#427,#428);
#343=AXIS2_PLACEMENT_3D('',#513,#430,#431);
#344=AXIS2_PLACEMENT_3D('',#514,#432,#433);
#345=DIRECTION('axis',(0.,0.,1.));
#346=DIRECTION('refdir',(1.,0.,0.));
#347=DIRECTION('center_axis',(0.,2.22044604925031E-16,1.));
#348=DIRECTION('ref_axis',(-0.707106781186549,-0.707106781186546,0.));
#349=DIRECTION('center_axis',(0.,-2.22044604925031E-16,-1.));
#350=DIRECTION('ref_axis',(-0.707106781186549,-0.707106781186546,0.));
#351=DIRECTION('',(0.,-2.22044604925031E-16,-1.));
#352=DIRECTION('center_axis',(0.,2.22044604925031E-16,1.));
#353=DIRECTION('ref_axis',(-0.707106781186549,-0.707106781186546,0.));
#354=DIRECTION('',(0.,2.22044604925031E-16,1.));
#355=DIRECTION('center_axis',(0.,1.,-2.22044604925031E-16));
#356=DIRECTION('ref_axis',(0.,-2.22044604925031E-16,-1.));
#357=DIRECTION('',(-1.,0.,0.));
#358=DIRECTION('',(0.,-2.22044604925031E-16,-1.));
#359=DIRECTION('',(1.,0.,0.));
#360=DIRECTION('center_axis',(0.,-2.22044604925031E-16,-1.));
#361=DIRECTION('ref_axis',(0.,-1.,2.22044604925031E-16));
#362=DIRECTION('',(0.,1.,-2.22044604925031E-16));
#363=DIRECTION('center_axis',(0.,2.22044604925031E-16,1.));
#364=DIRECTION('ref_axis',(-0.707106781186547,0.707106781186547,0.));
#365=DIRECTION('',(1.,0.,0.));
#366=DIRECTION('center_axis',(0.,2.22044604925031E-16,1.));
#367=DIRECTION('ref_axis',(0.707106781186547,0.707106781186547,0.));
#368=DIRECTION('',(0.,-1.,2.22044604925031E-16));
#369=DIRECTION('center_axis',(0.,2.22044604925031E-16,1.));
#370=DIRECTION('ref_axis',(0.707106781186547,-0.707106781186547,0.));
#371=DIRECTION('center_axis',(0.,2.22044604925031E-16,1.));
#372=DIRECTION('ref_axis',(1.,0.,0.));
#373=DIRECTION('center_axis',(0.,2.22044604925031E-16,1.));
#374=DIRECTION('ref_axis',(1.,0.,0.));
#375=DIRECTION('center_axis',(0.,2.22044604925031E-16,1.));
#376=DIRECTION('ref_axis',(1.,0.,0.));
#377=DIRECTION('center_axis',(0.,2.22044604925031E-16,1.));
#378=DIRECTION('ref_axis',(1.,0.,0.));
#379=DIRECTION('center_axis',(0.,2.22044604925031E-16,1.));
#380=DIRECTION('ref_axis',(1.,0.,0.));
#381=DIRECTION('center_axis',(0.,2.22044604925031E-16,1.));
#382=DIRECTION('ref_axis',(-0.707106781186547,0.707106781186547,0.));
#383=DIRECTION('center_axis',(0.,-2.22044604925031E-16,-1.));
#384=DIRECTION('ref_axis',(-0.707106781186547,0.707106781186547,0.));
#385=DIRECTION('',(0.,-2.22044604925031E-16,-1.));
#386=DIRECTION('',(0.,2.22044604925031E-16,1.));
#387=DIRECTION('center_axis',(0.,-1.,2.22044604925031E-16));
#388=DIRECTION('ref_axis',(0.,2.22044604925031E-16,1.));
#389=DIRECTION('',(-1.,0.,0.));
#390=DIRECTION('',(0.,2.22044604925031E-16,1.));
#391=DIRECTION('center_axis',(0.,2.22044604925031E-16,1.));
#392=DIRECTION('ref_axis',(0.707106781186547,0.707106781186547,0.));
#393=DIRECTION('center_axis',(0.,-2.22044604925031E-16,-1.));
#394=DIRECTION('ref_axis',(0.707106781186547,0.707106781186547,0.));
#395=DIRECTION('',(0.,-2.22044604925031E-16,-1.));
#396=DIRECTION('center_axis',(0.,2.22044604925031E-16,1.));
#397=DIRECTION('ref_axis',(0.707106781186547,-0.707106781186547,0.));
#398=DIRECTION('center_axis',(0.,-2.22044604925031E-16,-1.));
#399=DIRECTION('ref_axis',(0.707106781186547,-0.707106781186547,0.));
#400=DIRECTION('',(0.,2.22044604925031E-16,1.));
#401=DIRECTION('center_axis',(0.,-2.22044604925031E-16,-1.));
#402=DIRECTION('ref_axis',(0.,-1.,2.22044604925031E-16));
#403=DIRECTION('',(0.,1.,-2.22044604925031E-16));
#404=DIRECTION('',(0.,-1.,2.22044604925031E-16));
#405=DIRECTION('center_axis',(0.,-2.22044604925031E-16,-1.));
#406=DIRECTION('ref_axis',(1.,0.,0.));
#407=DIRECTION('center_axis',(0.,-2.22044604925031E-16,-1.));
#408=DIRECTION('ref_axis',(1.,0.,0.));
#409=DIRECTION('center_axis',(0.,-2.22044604925031E-16,-1.));
#410=DIRECTION('ref_axis',(1.,0.,0.));
#411=DIRECTION('center_axis',(0.,-2.22044604925031E-16,-1.));
#412=DIRECTION('ref_axis',(1.,0.,0.));
#413=DIRECTION('center_axis',(0.,-2.22044604925031E-16,-1.));
#414=DIRECTION('ref_axis',(1.,0.,0.));
#415=DIRECTION('center_axis',(0.,-2.22044604925031E-16,-1.));
#416=DIRECTION('ref_axis',(1.,0.,0.));
#417=DIRECTION('',(0.,-2.22044604925031E-16,-1.));
#418=DIRECTION('center_axis',(0.,-2.22044604925031E-16,-1.));
#419=DIRECTION('ref_axis',(1.,0.,0.));
#420=DIRECTION('',(0.,-2.22044604925031E-16,-1.));
#421=DIRECTION('center_axis',(0.,-2.22044604925031E-16,-1.));
#422=DIRECTION('ref_axis',(1.,0.,0.));
#423=DIRECTION('',(0.,-2.22044604925031E-16,-1.));
#424=DIRECTION('center_axis',(0.,-2.22044604925031E-16,-1.));
#425=DIRECTION('ref_axis',(1.,0.,0.));
#426=DIRECTION('',(0.,-2.22044604925031E-16,-1.));
#427=DIRECTION('center_axis',(0.,-2.22044604925031E-16,-1.));
#428=DIRECTION('ref_axis',(1.,0.,0.));
#429=DIRECTION('',(0.,-2.22044604925031E-16,-1.));
#430=DIRECTION('center_axis',(-1.,0.,0.));
#431=DIRECTION('ref_axis',(0.,-2.22044604925031E-16,-1.));
#432=DIRECTION('center_axis',(1.,0.,0.));
#433=DIRECTION('ref_axis',(0.,2.22044604925031E-16,1.));
#434=CARTESIAN_POINT('',(0.,0.,0.));
#435=CARTESIAN_POINT('Origin',(-36.5769945346739,1.50800000000002,-68.9362540989946));
#436=CARTESIAN_POINT('',(-36.5769945346739,1.77635683940025E-14,-61.4362540989946));
#437=CARTESIAN_POINT('',(-38.0849945346739,1.50800000000002,-61.4362540989946));
#438=CARTESIAN_POINT('Origin',(-36.5769945346739,1.50800000000002,-61.4362540989946));
#439=CARTESIAN_POINT('',(-38.0849945346739,1.50800000000002,-76.4362540989946));
#440=CARTESIAN_POINT('',(-38.0849945346739,1.50800000000002,-68.9362540989946));
#441=CARTESIAN_POINT('',(-36.5769945346739,1.77635683940025E-14,-76.4362540989946));
#442=CARTESIAN_POINT('Origin',(-36.5769945346739,1.50800000000001,-76.4362540989946));
#443=CARTESIAN_POINT('',(-36.5769945346739,1.77635683940025E-14,-68.9362540989946));
#444=CARTESIAN_POINT('Origin',(6.91500546532609,1.77635683940025E-14,-68.9362540989946));
#445=CARTESIAN_POINT('',(50.4070054653261,1.77635683940025E-14,-76.4362540989946));
#446=CARTESIAN_POINT('',(6.91500546532609,1.77635683940025E-14,-76.4362540989946));
#447=CARTESIAN_POINT('',(50.4070054653261,1.77635683940025E-14,-61.4362540989946));
#448=CARTESIAN_POINT('',(50.4070054653261,1.77635683940025E-14,-68.9362540989946));
#449=CARTESIAN_POINT('',(6.91500546532609,1.77635683940025E-14,-61.4362540989946));
#450=CARTESIAN_POINT('Origin',(6.91500546532609,45.,-76.4362540989946));
#451=CARTESIAN_POINT('',(-38.0849945346739,88.492,-76.4362540989946));
#452=CARTESIAN_POINT('',(-38.0849945346739,45.,-76.4362540989946));
#453=CARTESIAN_POINT('',(-36.5769945346739,90.,-76.4362540989946));
#454=CARTESIAN_POINT('Origin',(-36.5769945346739,88.492,-76.4362540989946));
#455=CARTESIAN_POINT('',(50.4070054653261,90.,-76.4362540989946));
#456=CARTESIAN_POINT('',(6.91500546532609,90.,-76.4362540989946));
#457=CARTESIAN_POINT('',(51.9150054653261,88.492,-76.4362540989946));
#458=CARTESIAN_POINT('Origin',(50.4070054653261,88.492,-76.4362540989946));
#459=CARTESIAN_POINT('',(51.9150054653261,1.50800000000002,-76.4362540989946));
#460=CARTESIAN_POINT('',(51.9150054653261,45.,-76.4362540989946));
#461=CARTESIAN_POINT('Origin',(50.4070054653261,1.50800000000002,-76.4362540989946));
#462=CARTESIAN_POINT('',(-19.8452162656497,67.5188407557452,-76.4362540989946));
#463=CARTESIAN_POINT('Origin',(-15.3452162656497,67.5188407557452,-76.4362540989946));
#464=CARTESIAN_POINT('',(24.9038735549601,67.3154885795759,-76.4362540989946));
#465=CARTESIAN_POINT('Origin',(29.4038735549601,67.3154885795759,-76.4362540989946));
#466=CARTESIAN_POINT('',(24.6646803013316,22.2799851748269,-76.4362540989946));
#467=CARTESIAN_POINT('Origin',(29.1646803013316,22.2799851748269,-76.4362540989946));
#468=CARTESIAN_POINT('',(0.734201039583243,44.822123462821,-76.4362540989946));
#469=CARTESIAN_POINT('Origin',(6.73420103958324,44.822123462821,-76.4362540989946));
#470=CARTESIAN_POINT('',(-20.1194742824576,22.3816668056804,-76.4362540989946));
#471=CARTESIAN_POINT('Origin',(-15.6194742824576,22.3816668056804,-76.4362540989946));
#472=CARTESIAN_POINT('Origin',(-36.5769945346739,88.492,-68.9362540989946));
#473=CARTESIAN_POINT('',(-38.0849945346739,88.492,-61.4362540989946));
#474=CARTESIAN_POINT('',(-36.5769945346739,90.,-61.4362540989946));
#475=CARTESIAN_POINT('Origin',(-36.5769945346739,88.492,-61.4362540989946));
#476=CARTESIAN_POINT('',(-36.5769945346739,90.,-68.9362540989946));
#477=CARTESIAN_POINT('',(-38.0849945346739,88.492,-68.9362540989946));
#478=CARTESIAN_POINT('Origin',(6.91500546532609,90.,-68.9362540989946));
#479=CARTESIAN_POINT('',(50.4070054653261,90.,-61.4362540989946));
#480=CARTESIAN_POINT('',(6.91500546532609,90.,-61.4362540989946));
#481=CARTESIAN_POINT('',(50.4070054653261,90.,-68.9362540989946));
#482=CARTESIAN_POINT('Origin',(50.4070054653261,88.492,-68.9362540989946));
#483=CARTESIAN_POINT('',(51.9150054653261,88.492,-61.4362540989946));
#484=CARTESIAN_POINT('Origin',(50.4070054653261,88.492,-61.4362540989946));
#485=CARTESIAN_POINT('',(51.9150054653261,88.492,-68.9362540989946));
#486=CARTESIAN_POINT('Origin',(50.4070054653261,1.50800000000002,-68.9362540989946));
#487=CARTESIAN_POINT('',(51.9150054653261,1.50800000000002,-61.4362540989946));
#488=CARTESIAN_POINT('Origin',(50.4070054653261,1.50800000000002,-61.4362540989946));
#489=CARTESIAN_POINT('',(51.9150054653261,1.50800000000002,-68.9362540989946));
#490=CARTESIAN_POINT('Origin',(6.91500546532609,45.,-61.4362540989946));
#491=CARTESIAN_POINT('',(51.9150054653261,45.,-61.4362540989946));
#492=CARTESIAN_POINT('',(-38.0849945346739,45.,-61.4362540989946));
#493=CARTESIAN_POINT('',(-19.8452162656497,67.5188407557452,-61.4362540989946));
#494=CARTESIAN_POINT('Origin',(-15.3452162656497,67.5188407557452,-61.4362540989946));
#495=CARTESIAN_POINT('',(24.9038735549601,67.3154885795759,-61.4362540989946));
#496=CARTESIAN_POINT('Origin',(29.4038735549601,67.3154885795759,-61.4362540989946));
#497=CARTESIAN_POINT('',(24.6646803013316,22.2799851748269,-61.4362540989946));
#498=CARTESIAN_POINT('Origin',(29.1646803013316,22.2799851748269,-61.4362540989946));
#499=CARTESIAN_POINT('',(0.734201039583243,44.822123462821,-61.4362540989946));
#500=CARTESIAN_POINT('Origin',(6.73420103958324,44.822123462821,-61.4362540989946));
#501=CARTESIAN_POINT('',(-20.1194742824576,22.3816668056804,-61.4362540989946));
#502=CARTESIAN_POINT('Origin',(-15.6194742824576,22.3816668056804,-61.4362540989946));
#503=CARTESIAN_POINT('Origin',(-15.6194742824576,22.3816668056804,-71.4362540989946));
#504=CARTESIAN_POINT('',(-20.1194742824576,22.3816668056804,-71.4362540989946));
#505=CARTESIAN_POINT('Origin',(6.73420103958324,44.822123462821,-71.4362540989946));
#506=CARTESIAN_POINT('',(0.734201039583243,44.822123462821,-71.4362540989946));
#507=CARTESIAN_POINT('Origin',(29.1646803013316,22.2799851748269,-71.4362540989946));
#508=CARTESIAN_POINT('',(24.6646803013316,22.2799851748269,-71.4362540989946));
#509=CARTESIAN_POINT('Origin',(29.4038735549601,67.3154885795759,-71.4362540989946));
#510=CARTESIAN_POINT('',(24.9038735549601,67.3154885795759,-71.4362540989946));
#511=CARTESIAN_POINT('Origin',(-15.3452162656497,67.5188407557452,-71.4362540989946));
#512=CARTESIAN_POINT('',(-19.8452162656497,67.5188407557452,-71.4362540989946));
#513=CARTESIAN_POINT('Origin',(51.9150054653261,45.,-68.9362540989946));
#514=CARTESIAN_POINT('Origin',(-38.0849945346739,45.,-68.9362540989946));
#515=UNCERTAINTY_MEASURE_WITH_UNIT(LENGTH_MEASURE(0.01),#519,
'DISTANCE_ACCURACY_VALUE',
'Maximum model space distance between geometric entities at asserted c
onnectivities');
#516=UNCERTAINTY_MEASURE_WITH_UNIT(LENGTH_MEASURE(0.01),#519,
'DISTANCE_ACCURACY_VALUE',
'Maximum model space distance between geometric entities at asserted c
onnectivities');
#517=(
GEOMETRIC_REPRESENTATION_CONTEXT(3)
GLOBAL_UNCERTAINTY_ASSIGNED_CONTEXT((#515))
GLOBAL_UNIT_ASSIGNED_CONTEXT((#519,#521,#522))
REPRESENTATION_CONTEXT('','3D')
);
#518=(
GEOMETRIC_REPRESENTATION_CONTEXT(3)
GLOBAL_UNCERTAINTY_ASSIGNED_CONTEXT((#516))
GLOBAL_UNIT_ASSIGNED_CONTEXT((#519,#521,#522))
REPRESENTATION_CONTEXT('','3D')
);
#519=(
LENGTH_UNIT()
NAMED_UNIT(*)
SI_UNIT(.MILLI.,.METRE.)
);
#520=(
LENGTH_UNIT()
NAMED_UNIT(*)
SI_UNIT($,.METRE.)
);
#521=(
NAMED_UNIT(*)
PLANE_ANGLE_UNIT()
SI_UNIT($,.RADIAN.)
);
#522=(
NAMED_UNIT(*)
SI_UNIT($,.STERADIAN.)
SOLID_ANGLE_UNIT()
);
#523=SHAPE_DEFINITION_REPRESENTATION(#524,#525);
#524=PRODUCT_DEFINITION_SHAPE('',$,#527);
#525=SHAPE_REPRESENTATION('',(#311),#517);
#526=PRODUCT_DEFINITION_CONTEXT('part definition',#531,'design');
#527=PRODUCT_DEFINITION('(Unsaved)','(Unsaved)',#528,#526);
#528=PRODUCT_DEFINITION_FORMATION('',$,#533);
#529=PRODUCT_RELATED_PRODUCT_CATEGORY('(Unsaved)','(Unsaved)',(#533));
#530=APPLICATION_PROTOCOL_DEFINITION('international standard',
'automotive_design',2009,#531);
#531=APPLICATION_CONTEXT(
'Core Data for Automotive Mechanical Design Process');
#532=PRODUCT_CONTEXT('part definition',#531,'mechanical');
#533=PRODUCT('(Unsaved)','(Unsaved)',$,(#532));
#534=PRESENTATION_STYLE_ASSIGNMENT((#536));
#535=PRESENTATION_STYLE_ASSIGNMENT((#537));
#536=SURFACE_STYLE_USAGE(.BOTH.,#538);
#537=SURFACE_STYLE_USAGE(.BOTH.,#539);
#538=SURFACE_SIDE_STYLE('',(#540));
#539=SURFACE_SIDE_STYLE('',(#541));
#540=SURFACE_STYLE_FILL_AREA(#542);
#541=SURFACE_STYLE_FILL_AREA(#543);
#542=FILL_AREA_STYLE('Steel - Satin',(#544));
#543=FILL_AREA_STYLE('Aluminum - Bead Blasted',(#545));
#544=FILL_AREA_STYLE_COLOUR('Steel - Satin',#546);
#545=FILL_AREA_STYLE_COLOUR('Aluminum - Bead Blasted',#547);
#546=COLOUR_RGB('Steel - Satin',0.627450980392157,0.627450980392157,0.627450980392157);
#547=COLOUR_RGB('Aluminum - Bead Blasted',0.96078431372549,0.96078431372549,
0.964705882352941);
ENDSEC;
END-ISO-10303-21;
