ISO-10303-21;
HEADER;
/* Generated by software containing ST-Developer
 * from STEP Tools, Inc. (www.steptools.com) 
 */

FILE_DESCRIPTION(
/* description */ (''),
/* implementation_level */ '2;1');

FILE_NAME(
/* name */ 
'Z:/Modular Solution/A-Profile System/Parts/30 Series/32-9090WS-0/CAD/
32-9090WS-0.step',
/* time_stamp */ '2022-07-20T16:46:56-04:00',
/* author */ (''),
/* organization */ (''),
/* preprocessor_version */ 'ST-DEVELOPER v19',
/* originating_system */ 'Autodesk Translation Framework v11.7.0.108',
/* authorisation */ '');

FILE_SCHEMA (('AUTOMOTIVE_DESIGN { 1 0 10303 214 3 1 1 }'));
ENDSEC;

DATA;
#10=MECHANICAL_DESIGN_GEOMETRIC_PRESENTATION_REPRESENTATION('',(#13),#479);
#11=SHAPE_REPRESENTATION_RELATIONSHIP('SRR','None',#486,#12);
#12=ADVANCED_BREP_SHAPE_REPRESENTATION('',(#14),#478);
#13=STYLED_ITEM('',(#496),#14);
#14=MANIFOLD_SOLID_BREP('Body1',#275);
#15=FACE_BOUND('',#46,.T.);
#16=FACE_BOUND('',#47,.T.);
#17=FACE_BOUND('',#48,.T.);
#18=FACE_BOUND('',#49,.T.);
#19=FACE_BOUND('',#53,.T.);
#20=FACE_BOUND('',#54,.T.);
#21=FACE_BOUND('',#55,.T.);
#22=FACE_BOUND('',#56,.T.);
#23=PLANE('',#292);
#24=PLANE('',#293);
#25=PLANE('',#303);
#26=PLANE('',#304);
#27=PLANE('',#312);
#28=PLANE('',#318);
#29=FACE_OUTER_BOUND('',#43,.T.);
#30=FACE_OUTER_BOUND('',#44,.T.);
#31=FACE_OUTER_BOUND('',#45,.T.);
#32=FACE_OUTER_BOUND('',#50,.T.);
#33=FACE_OUTER_BOUND('',#51,.T.);
#34=FACE_OUTER_BOUND('',#52,.T.);
#35=FACE_OUTER_BOUND('',#57,.T.);
#36=FACE_OUTER_BOUND('',#58,.T.);
#37=FACE_OUTER_BOUND('',#59,.T.);
#38=FACE_OUTER_BOUND('',#60,.T.);
#39=FACE_OUTER_BOUND('',#61,.T.);
#40=FACE_OUTER_BOUND('',#62,.T.);
#41=FACE_OUTER_BOUND('',#63,.T.);
#42=FACE_OUTER_BOUND('',#64,.T.);
#43=EDGE_LOOP('',(#181,#182,#183,#184));
#44=EDGE_LOOP('',(#185,#186,#187,#188));
#45=EDGE_LOOP('',(#189,#190,#191,#192,#193,#194,#195,#196));
#46=EDGE_LOOP('',(#197));
#47=EDGE_LOOP('',(#198));
#48=EDGE_LOOP('',(#199));
#49=EDGE_LOOP('',(#200));
#50=EDGE_LOOP('',(#201,#202,#203,#204));
#51=EDGE_LOOP('',(#205,#206,#207,#208));
#52=EDGE_LOOP('',(#209,#210,#211,#212,#213,#214,#215,#216));
#53=EDGE_LOOP('',(#217));
#54=EDGE_LOOP('',(#218));
#55=EDGE_LOOP('',(#219));
#56=EDGE_LOOP('',(#220));
#57=EDGE_LOOP('',(#221,#222,#223,#224));
#58=EDGE_LOOP('',(#225,#226,#227,#228));
#59=EDGE_LOOP('',(#229,#230,#231,#232));
#60=EDGE_LOOP('',(#233,#234,#235,#236));
#61=EDGE_LOOP('',(#237,#238,#239,#240));
#62=EDGE_LOOP('',(#241,#242,#243,#244));
#63=EDGE_LOOP('',(#245,#246,#247,#248));
#64=EDGE_LOOP('',(#249,#250,#251,#252));
#65=LINE('',#407,#85);
#66=LINE('',#410,#86);
#67=LINE('',#413,#87);
#68=LINE('',#415,#88);
#69=LINE('',#416,#89);
#70=LINE('',#419,#90);
#71=LINE('',#423,#91);
#72=LINE('',#427,#92);
#73=LINE('',#439,#93);
#74=LINE('',#442,#94);
#75=LINE('',#445,#95);
#76=LINE('',#446,#96);
#77=LINE('',#451,#97);
#78=LINE('',#453,#98);
#79=LINE('',#463,#99);
#80=LINE('',#465,#100);
#81=LINE('',#468,#101);
#82=LINE('',#470,#102);
#83=LINE('',#472,#103);
#84=LINE('',#474,#104);
#85=VECTOR('',#325,10.);
#86=VECTOR('',#328,10.);
#87=VECTOR('',#331,10.);
#88=VECTOR('',#332,10.);
#89=VECTOR('',#333,10.);
#90=VECTOR('',#336,10.);
#91=VECTOR('',#339,10.);
#92=VECTOR('',#342,10.);
#93=VECTOR('',#355,10.);
#94=VECTOR('',#358,10.);
#95=VECTOR('',#361,10.);
#96=VECTOR('',#362,10.);
#97=VECTOR('',#367,10.);
#98=VECTOR('',#370,10.);
#99=VECTOR('',#381,10.);
#100=VECTOR('',#384,10.);
#101=VECTOR('',#389,4.5);
#102=VECTOR('',#392,4.5);
#103=VECTOR('',#395,4.5);
#104=VECTOR('',#398,4.5);
#105=CIRCLE('',#290,3.);
#106=CIRCLE('',#291,3.);
#107=CIRCLE('',#294,3.);
#108=CIRCLE('',#295,3.);
#109=CIRCLE('',#296,3.);
#110=CIRCLE('',#297,4.5);
#111=CIRCLE('',#298,4.5);
#112=CIRCLE('',#299,4.5);
#113=CIRCLE('',#300,4.5);
#114=CIRCLE('',#302,3.);
#115=CIRCLE('',#305,3.);
#116=CIRCLE('',#306,3.);
#117=CIRCLE('',#307,4.5);
#118=CIRCLE('',#308,4.5);
#119=CIRCLE('',#309,4.5);
#120=CIRCLE('',#310,4.5);
#121=VERTEX_POINT('',#403);
#122=VERTEX_POINT('',#404);
#123=VERTEX_POINT('',#406);
#124=VERTEX_POINT('',#408);
#125=VERTEX_POINT('',#412);
#126=VERTEX_POINT('',#414);
#127=VERTEX_POINT('',#418);
#128=VERTEX_POINT('',#420);
#129=VERTEX_POINT('',#422);
#130=VERTEX_POINT('',#424);
#131=VERTEX_POINT('',#426);
#132=VERTEX_POINT('',#429);
#133=VERTEX_POINT('',#431);
#134=VERTEX_POINT('',#433);
#135=VERTEX_POINT('',#435);
#136=VERTEX_POINT('',#438);
#137=VERTEX_POINT('',#440);
#138=VERTEX_POINT('',#444);
#139=VERTEX_POINT('',#448);
#140=VERTEX_POINT('',#450);
#141=VERTEX_POINT('',#454);
#142=VERTEX_POINT('',#456);
#143=VERTEX_POINT('',#458);
#144=VERTEX_POINT('',#460);
#145=EDGE_CURVE('',#121,#122,#105,.T.);
#146=EDGE_CURVE('',#122,#123,#65,.T.);
#147=EDGE_CURVE('',#123,#124,#106,.T.);
#148=EDGE_CURVE('',#124,#121,#66,.T.);
#149=EDGE_CURVE('',#125,#122,#67,.T.);
#150=EDGE_CURVE('',#126,#125,#68,.T.);
#151=EDGE_CURVE('',#123,#126,#69,.T.);
#152=EDGE_CURVE('',#121,#127,#70,.T.);
#153=EDGE_CURVE('',#128,#127,#107,.T.);
#154=EDGE_CURVE('',#128,#129,#71,.T.);
#155=EDGE_CURVE('',#130,#129,#108,.T.);
#156=EDGE_CURVE('',#130,#131,#72,.T.);
#157=EDGE_CURVE('',#125,#131,#109,.T.);
#158=EDGE_CURVE('',#132,#132,#110,.T.);
#159=EDGE_CURVE('',#133,#133,#111,.T.);
#160=EDGE_CURVE('',#134,#134,#112,.T.);
#161=EDGE_CURVE('',#135,#135,#113,.T.);
#162=EDGE_CURVE('',#127,#136,#73,.T.);
#163=EDGE_CURVE('',#136,#137,#114,.T.);
#164=EDGE_CURVE('',#137,#128,#74,.T.);
#165=EDGE_CURVE('',#138,#137,#75,.T.);
#166=EDGE_CURVE('',#129,#138,#76,.T.);
#167=EDGE_CURVE('',#139,#126,#115,.T.);
#168=EDGE_CURVE('',#139,#140,#77,.T.);
#169=EDGE_CURVE('',#138,#140,#116,.T.);
#170=EDGE_CURVE('',#136,#124,#78,.T.);
#171=EDGE_CURVE('',#141,#141,#117,.T.);
#172=EDGE_CURVE('',#142,#142,#118,.T.);
#173=EDGE_CURVE('',#143,#143,#119,.T.);
#174=EDGE_CURVE('',#144,#144,#120,.T.);
#175=EDGE_CURVE('',#140,#130,#79,.T.);
#176=EDGE_CURVE('',#131,#139,#80,.T.);
#177=EDGE_CURVE('',#144,#135,#81,.T.);
#178=EDGE_CURVE('',#143,#134,#82,.T.);
#179=EDGE_CURVE('',#142,#133,#83,.T.);
#180=EDGE_CURVE('',#141,#132,#84,.T.);
#181=ORIENTED_EDGE('',*,*,#145,.T.);
#182=ORIENTED_EDGE('',*,*,#146,.T.);
#183=ORIENTED_EDGE('',*,*,#147,.T.);
#184=ORIENTED_EDGE('',*,*,#148,.T.);
#185=ORIENTED_EDGE('',*,*,#146,.F.);
#186=ORIENTED_EDGE('',*,*,#149,.F.);
#187=ORIENTED_EDGE('',*,*,#150,.F.);
#188=ORIENTED_EDGE('',*,*,#151,.F.);
#189=ORIENTED_EDGE('',*,*,#145,.F.);
#190=ORIENTED_EDGE('',*,*,#152,.T.);
#191=ORIENTED_EDGE('',*,*,#153,.F.);
#192=ORIENTED_EDGE('',*,*,#154,.T.);
#193=ORIENTED_EDGE('',*,*,#155,.F.);
#194=ORIENTED_EDGE('',*,*,#156,.T.);
#195=ORIENTED_EDGE('',*,*,#157,.F.);
#196=ORIENTED_EDGE('',*,*,#149,.T.);
#197=ORIENTED_EDGE('',*,*,#158,.T.);
#198=ORIENTED_EDGE('',*,*,#159,.T.);
#199=ORIENTED_EDGE('',*,*,#160,.T.);
#200=ORIENTED_EDGE('',*,*,#161,.T.);
#201=ORIENTED_EDGE('',*,*,#153,.T.);
#202=ORIENTED_EDGE('',*,*,#162,.T.);
#203=ORIENTED_EDGE('',*,*,#163,.T.);
#204=ORIENTED_EDGE('',*,*,#164,.T.);
#205=ORIENTED_EDGE('',*,*,#164,.F.);
#206=ORIENTED_EDGE('',*,*,#165,.F.);
#207=ORIENTED_EDGE('',*,*,#166,.F.);
#208=ORIENTED_EDGE('',*,*,#154,.F.);
#209=ORIENTED_EDGE('',*,*,#147,.F.);
#210=ORIENTED_EDGE('',*,*,#151,.T.);
#211=ORIENTED_EDGE('',*,*,#167,.F.);
#212=ORIENTED_EDGE('',*,*,#168,.T.);
#213=ORIENTED_EDGE('',*,*,#169,.F.);
#214=ORIENTED_EDGE('',*,*,#165,.T.);
#215=ORIENTED_EDGE('',*,*,#163,.F.);
#216=ORIENTED_EDGE('',*,*,#170,.T.);
#217=ORIENTED_EDGE('',*,*,#171,.T.);
#218=ORIENTED_EDGE('',*,*,#172,.T.);
#219=ORIENTED_EDGE('',*,*,#173,.T.);
#220=ORIENTED_EDGE('',*,*,#174,.T.);
#221=ORIENTED_EDGE('',*,*,#155,.T.);
#222=ORIENTED_EDGE('',*,*,#166,.T.);
#223=ORIENTED_EDGE('',*,*,#169,.T.);
#224=ORIENTED_EDGE('',*,*,#175,.T.);
#225=ORIENTED_EDGE('',*,*,#175,.F.);
#226=ORIENTED_EDGE('',*,*,#168,.F.);
#227=ORIENTED_EDGE('',*,*,#176,.F.);
#228=ORIENTED_EDGE('',*,*,#156,.F.);
#229=ORIENTED_EDGE('',*,*,#157,.T.);
#230=ORIENTED_EDGE('',*,*,#176,.T.);
#231=ORIENTED_EDGE('',*,*,#167,.T.);
#232=ORIENTED_EDGE('',*,*,#150,.T.);
#233=ORIENTED_EDGE('',*,*,#174,.F.);
#234=ORIENTED_EDGE('',*,*,#177,.T.);
#235=ORIENTED_EDGE('',*,*,#161,.F.);
#236=ORIENTED_EDGE('',*,*,#177,.F.);
#237=ORIENTED_EDGE('',*,*,#173,.F.);
#238=ORIENTED_EDGE('',*,*,#178,.T.);
#239=ORIENTED_EDGE('',*,*,#160,.F.);
#240=ORIENTED_EDGE('',*,*,#178,.F.);
#241=ORIENTED_EDGE('',*,*,#172,.F.);
#242=ORIENTED_EDGE('',*,*,#179,.T.);
#243=ORIENTED_EDGE('',*,*,#159,.F.);
#244=ORIENTED_EDGE('',*,*,#179,.F.);
#245=ORIENTED_EDGE('',*,*,#171,.F.);
#246=ORIENTED_EDGE('',*,*,#180,.T.);
#247=ORIENTED_EDGE('',*,*,#158,.F.);
#248=ORIENTED_EDGE('',*,*,#180,.F.);
#249=ORIENTED_EDGE('',*,*,#148,.F.);
#250=ORIENTED_EDGE('',*,*,#170,.F.);
#251=ORIENTED_EDGE('',*,*,#162,.F.);
#252=ORIENTED_EDGE('',*,*,#152,.F.);
#253=CYLINDRICAL_SURFACE('',#289,3.);
#254=CYLINDRICAL_SURFACE('',#301,3.);
#255=CYLINDRICAL_SURFACE('',#311,3.);
#256=CYLINDRICAL_SURFACE('',#313,3.);
#257=CYLINDRICAL_SURFACE('',#314,4.5);
#258=CYLINDRICAL_SURFACE('',#315,4.5);
#259=CYLINDRICAL_SURFACE('',#316,4.5);
#260=CYLINDRICAL_SURFACE('',#317,4.5);
#261=ADVANCED_FACE('',(#29),#253,.T.);
#262=ADVANCED_FACE('',(#30),#23,.F.);
#263=ADVANCED_FACE('',(#31,#15,#16,#17,#18),#24,.F.);
#264=ADVANCED_FACE('',(#32),#254,.T.);
#265=ADVANCED_FACE('',(#33),#25,.F.);
#266=ADVANCED_FACE('',(#34,#19,#20,#21,#22),#26,.T.);
#267=ADVANCED_FACE('',(#35),#255,.T.);
#268=ADVANCED_FACE('',(#36),#27,.F.);
#269=ADVANCED_FACE('',(#37),#256,.T.);
#270=ADVANCED_FACE('',(#38),#257,.F.);
#271=ADVANCED_FACE('',(#39),#258,.F.);
#272=ADVANCED_FACE('',(#40),#259,.F.);
#273=ADVANCED_FACE('',(#41),#260,.F.);
#274=ADVANCED_FACE('',(#42),#28,.F.);
#275=CLOSED_SHELL('',(#261,#262,#263,#264,#265,#266,#267,#268,#269,#270,
#271,#272,#273,#274));
#276=DERIVED_UNIT_ELEMENT(#278,1.);
#277=DERIVED_UNIT_ELEMENT(#481,-3.);
#278=(
MASS_UNIT()
NAMED_UNIT(*)
SI_UNIT(.KILO.,.GRAM.)
);
#279=DERIVED_UNIT((#276,#277));
#280=MEASURE_REPRESENTATION_ITEM('density measure',
POSITIVE_RATIO_MEASURE(7850.),#279);
#281=PROPERTY_DEFINITION_REPRESENTATION(#286,#283);
#282=PROPERTY_DEFINITION_REPRESENTATION(#287,#284);
#283=REPRESENTATION('material name',(#285),#478);
#284=REPRESENTATION('density',(#280),#478);
#285=DESCRIPTIVE_REPRESENTATION_ITEM('Steel','Steel');
#286=PROPERTY_DEFINITION('material property','material name',#488);
#287=PROPERTY_DEFINITION('material property','density of part',#488);
#288=AXIS2_PLACEMENT_3D('placement',#401,#319,#320);
#289=AXIS2_PLACEMENT_3D('',#402,#321,#322);
#290=AXIS2_PLACEMENT_3D('',#405,#323,#324);
#291=AXIS2_PLACEMENT_3D('',#409,#326,#327);
#292=AXIS2_PLACEMENT_3D('',#411,#329,#330);
#293=AXIS2_PLACEMENT_3D('',#417,#334,#335);
#294=AXIS2_PLACEMENT_3D('',#421,#337,#338);
#295=AXIS2_PLACEMENT_3D('',#425,#340,#341);
#296=AXIS2_PLACEMENT_3D('',#428,#343,#344);
#297=AXIS2_PLACEMENT_3D('',#430,#345,#346);
#298=AXIS2_PLACEMENT_3D('',#432,#347,#348);
#299=AXIS2_PLACEMENT_3D('',#434,#349,#350);
#300=AXIS2_PLACEMENT_3D('',#436,#351,#352);
#301=AXIS2_PLACEMENT_3D('',#437,#353,#354);
#302=AXIS2_PLACEMENT_3D('',#441,#356,#357);
#303=AXIS2_PLACEMENT_3D('',#443,#359,#360);
#304=AXIS2_PLACEMENT_3D('',#447,#363,#364);
#305=AXIS2_PLACEMENT_3D('',#449,#365,#366);
#306=AXIS2_PLACEMENT_3D('',#452,#368,#369);
#307=AXIS2_PLACEMENT_3D('',#455,#371,#372);
#308=AXIS2_PLACEMENT_3D('',#457,#373,#374);
#309=AXIS2_PLACEMENT_3D('',#459,#375,#376);
#310=AXIS2_PLACEMENT_3D('',#461,#377,#378);
#311=AXIS2_PLACEMENT_3D('',#462,#379,#380);
#312=AXIS2_PLACEMENT_3D('',#464,#382,#383);
#313=AXIS2_PLACEMENT_3D('',#466,#385,#386);
#314=AXIS2_PLACEMENT_3D('',#467,#387,#388);
#315=AXIS2_PLACEMENT_3D('',#469,#390,#391);
#316=AXIS2_PLACEMENT_3D('',#471,#393,#394);
#317=AXIS2_PLACEMENT_3D('',#473,#396,#397);
#318=AXIS2_PLACEMENT_3D('',#475,#399,#400);
#319=DIRECTION('axis',(0.,0.,1.));
#320=DIRECTION('refdir',(1.,0.,0.));
#321=DIRECTION('center_axis',(0.,0.,-1.));
#322=DIRECTION('ref_axis',(-0.707106781186547,-0.707106781186548,0.));
#323=DIRECTION('center_axis',(0.,0.,1.));
#324=DIRECTION('ref_axis',(-0.707106781186547,-0.707106781186548,0.));
#325=DIRECTION('',(0.,0.,1.));
#326=DIRECTION('center_axis',(0.,0.,-1.));
#327=DIRECTION('ref_axis',(-0.707106781186547,-0.707106781186548,0.));
#328=DIRECTION('',(0.,0.,-1.));
#329=DIRECTION('center_axis',(0.,1.,0.));
#330=DIRECTION('ref_axis',(0.,0.,1.));
#331=DIRECTION('',(-1.,0.,0.));
#332=DIRECTION('',(0.,0.,-1.));
#333=DIRECTION('',(1.,0.,0.));
#334=DIRECTION('center_axis',(0.,0.,1.));
#335=DIRECTION('ref_axis',(0.,-1.,0.));
#336=DIRECTION('',(0.,1.,0.));
#337=DIRECTION('center_axis',(0.,0.,1.));
#338=DIRECTION('ref_axis',(-0.707106781186547,0.707106781186548,0.));
#339=DIRECTION('',(1.,0.,0.));
#340=DIRECTION('center_axis',(0.,0.,1.));
#341=DIRECTION('ref_axis',(0.707106781186549,0.707106781186546,0.));
#342=DIRECTION('',(0.,-1.,0.));
#343=DIRECTION('center_axis',(0.,0.,1.));
#344=DIRECTION('ref_axis',(0.707106781186548,-0.707106781186548,0.));
#345=DIRECTION('center_axis',(0.,0.,1.));
#346=DIRECTION('ref_axis',(1.,0.,0.));
#347=DIRECTION('center_axis',(0.,0.,1.));
#348=DIRECTION('ref_axis',(1.,0.,0.));
#349=DIRECTION('center_axis',(0.,0.,1.));
#350=DIRECTION('ref_axis',(1.,0.,0.));
#351=DIRECTION('center_axis',(0.,0.,1.));
#352=DIRECTION('ref_axis',(1.,0.,0.));
#353=DIRECTION('center_axis',(0.,0.,-1.));
#354=DIRECTION('ref_axis',(-0.707106781186547,0.707106781186548,0.));
#355=DIRECTION('',(0.,0.,1.));
#356=DIRECTION('center_axis',(0.,0.,-1.));
#357=DIRECTION('ref_axis',(-0.707106781186547,0.707106781186548,0.));
#358=DIRECTION('',(0.,0.,-1.));
#359=DIRECTION('center_axis',(0.,-1.,0.));
#360=DIRECTION('ref_axis',(0.,0.,-1.));
#361=DIRECTION('',(-1.,0.,0.));
#362=DIRECTION('',(0.,0.,1.));
#363=DIRECTION('center_axis',(0.,0.,1.));
#364=DIRECTION('ref_axis',(0.,-1.,0.));
#365=DIRECTION('center_axis',(0.,0.,-1.));
#366=DIRECTION('ref_axis',(0.707106781186548,-0.707106781186548,0.));
#367=DIRECTION('',(0.,1.,0.));
#368=DIRECTION('center_axis',(0.,0.,-1.));
#369=DIRECTION('ref_axis',(0.707106781186549,0.707106781186546,0.));
#370=DIRECTION('',(0.,-1.,0.));
#371=DIRECTION('center_axis',(0.,0.,-1.));
#372=DIRECTION('ref_axis',(1.,0.,0.));
#373=DIRECTION('center_axis',(0.,0.,-1.));
#374=DIRECTION('ref_axis',(1.,0.,0.));
#375=DIRECTION('center_axis',(0.,0.,-1.));
#376=DIRECTION('ref_axis',(1.,0.,0.));
#377=DIRECTION('center_axis',(0.,0.,-1.));
#378=DIRECTION('ref_axis',(1.,0.,0.));
#379=DIRECTION('center_axis',(0.,0.,-1.));
#380=DIRECTION('ref_axis',(0.707106781186549,0.707106781186546,0.));
#381=DIRECTION('',(0.,0.,-1.));
#382=DIRECTION('center_axis',(-1.,0.,0.));
#383=DIRECTION('ref_axis',(0.,0.,-1.));
#384=DIRECTION('',(0.,0.,1.));
#385=DIRECTION('center_axis',(0.,0.,-1.));
#386=DIRECTION('ref_axis',(0.707106781186548,-0.707106781186548,0.));
#387=DIRECTION('center_axis',(0.,0.,-1.));
#388=DIRECTION('ref_axis',(1.,0.,0.));
#389=DIRECTION('',(0.,0.,-1.));
#390=DIRECTION('center_axis',(0.,0.,-1.));
#391=DIRECTION('ref_axis',(1.,0.,0.));
#392=DIRECTION('',(0.,0.,-1.));
#393=DIRECTION('center_axis',(0.,0.,-1.));
#394=DIRECTION('ref_axis',(1.,0.,0.));
#395=DIRECTION('',(0.,0.,-1.));
#396=DIRECTION('center_axis',(0.,0.,-1.));
#397=DIRECTION('ref_axis',(1.,0.,0.));
#398=DIRECTION('',(0.,0.,-1.));
#399=DIRECTION('center_axis',(1.,0.,0.));
#400=DIRECTION('ref_axis',(0.,0.,1.));
#401=CARTESIAN_POINT('',(0.,0.,0.));
#402=CARTESIAN_POINT('Origin',(3.,-87.,7.5));
#403=CARTESIAN_POINT('',(0.,-87.,0.));
#404=CARTESIAN_POINT('',(3.00000000000001,-90.,0.));
#405=CARTESIAN_POINT('Origin',(3.,-87.,0.));
#406=CARTESIAN_POINT('',(3.00000000000001,-90.,15.));
#407=CARTESIAN_POINT('',(3.,-90.,7.5));
#408=CARTESIAN_POINT('',(0.,-87.,15.));
#409=CARTESIAN_POINT('Origin',(3.,-87.,15.));
#410=CARTESIAN_POINT('',(0.,-87.,7.5));
#411=CARTESIAN_POINT('Origin',(45.,-90.,7.5));
#412=CARTESIAN_POINT('',(87.,-90.,0.));
#413=CARTESIAN_POINT('',(45.,-90.,0.));
#414=CARTESIAN_POINT('',(87.,-90.,15.));
#415=CARTESIAN_POINT('',(87.,-90.,7.5));
#416=CARTESIAN_POINT('',(45.,-90.,15.));
#417=CARTESIAN_POINT('Origin',(45.,-45.,0.));
#418=CARTESIAN_POINT('',(0.,-3.00000000000001,0.));
#419=CARTESIAN_POINT('',(0.,-45.,0.));
#420=CARTESIAN_POINT('',(3.,0.,0.));
#421=CARTESIAN_POINT('Origin',(3.,-3.,0.));
#422=CARTESIAN_POINT('',(87.,0.,0.));
#423=CARTESIAN_POINT('',(45.,0.,0.));
#424=CARTESIAN_POINT('',(90.,-3.,0.));
#425=CARTESIAN_POINT('Origin',(87.,-3.,0.));
#426=CARTESIAN_POINT('',(90.,-87.,0.));
#427=CARTESIAN_POINT('',(90.,-45.,0.));
#428=CARTESIAN_POINT('Origin',(87.,-87.,0.));
#429=CARTESIAN_POINT('',(18.1612690673262,-22.5255486432888,0.));
#430=CARTESIAN_POINT('Origin',(22.6612690673262,-22.5255486432888,0.));
#431=CARTESIAN_POINT('',(17.9078935008803,-67.5293014032727,0.));
#432=CARTESIAN_POINT('Origin',(22.4078935008803,-67.5293014032727,0.));
#433=CARTESIAN_POINT('',(62.7995455213282,-22.6852511355717,0.));
#434=CARTESIAN_POINT('Origin',(67.2995455213282,-22.6852511355717,0.));
#435=CARTESIAN_POINT('',(63.083381640982,-67.2031606027235,0.));
#436=CARTESIAN_POINT('Origin',(67.583381640982,-67.2031606027235,0.));
#437=CARTESIAN_POINT('Origin',(3.,-3.,7.5));
#438=CARTESIAN_POINT('',(0.,-3.00000000000001,15.));
#439=CARTESIAN_POINT('',(0.,-3.,7.5));
#440=CARTESIAN_POINT('',(3.,0.,15.));
#441=CARTESIAN_POINT('Origin',(3.,-3.,15.));
#442=CARTESIAN_POINT('',(3.,0.,7.5));
#443=CARTESIAN_POINT('Origin',(45.,0.,7.5));
#444=CARTESIAN_POINT('',(87.,0.,15.));
#445=CARTESIAN_POINT('',(45.,0.,15.));
#446=CARTESIAN_POINT('',(87.,0.,7.5));
#447=CARTESIAN_POINT('Origin',(45.,-45.,15.));
#448=CARTESIAN_POINT('',(90.,-87.,15.));
#449=CARTESIAN_POINT('Origin',(87.,-87.,15.));
#450=CARTESIAN_POINT('',(90.,-3.,15.));
#451=CARTESIAN_POINT('',(90.,-45.,15.));
#452=CARTESIAN_POINT('Origin',(87.,-3.,15.));
#453=CARTESIAN_POINT('',(0.,-45.,15.));
#454=CARTESIAN_POINT('',(18.1612690673262,-22.5255486432888,15.));
#455=CARTESIAN_POINT('Origin',(22.6612690673262,-22.5255486432888,15.));
#456=CARTESIAN_POINT('',(17.9078935008803,-67.5293014032727,15.));
#457=CARTESIAN_POINT('Origin',(22.4078935008803,-67.5293014032727,15.));
#458=CARTESIAN_POINT('',(62.7995455213282,-22.6852511355717,15.));
#459=CARTESIAN_POINT('Origin',(67.2995455213282,-22.6852511355717,15.));
#460=CARTESIAN_POINT('',(63.083381640982,-67.2031606027235,15.));
#461=CARTESIAN_POINT('Origin',(67.583381640982,-67.2031606027235,15.));
#462=CARTESIAN_POINT('Origin',(87.,-3.,7.5));
#463=CARTESIAN_POINT('',(90.,-3.,7.5));
#464=CARTESIAN_POINT('Origin',(90.,-45.,7.5));
#465=CARTESIAN_POINT('',(90.,-87.,7.5));
#466=CARTESIAN_POINT('Origin',(87.,-87.,7.5));
#467=CARTESIAN_POINT('Origin',(67.583381640982,-67.2031606027235,0.));
#468=CARTESIAN_POINT('',(63.083381640982,-67.2031606027235,0.));
#469=CARTESIAN_POINT('Origin',(67.2995455213282,-22.6852511355717,0.));
#470=CARTESIAN_POINT('',(62.7995455213282,-22.6852511355717,0.));
#471=CARTESIAN_POINT('Origin',(22.4078935008803,-67.5293014032727,0.));
#472=CARTESIAN_POINT('',(17.9078935008803,-67.5293014032727,0.));
#473=CARTESIAN_POINT('Origin',(22.6612690673262,-22.5255486432888,0.));
#474=CARTESIAN_POINT('',(18.1612690673262,-22.5255486432888,0.));
#475=CARTESIAN_POINT('Origin',(0.,-45.,7.5));
#476=UNCERTAINTY_MEASURE_WITH_UNIT(LENGTH_MEASURE(0.01),#480,
'DISTANCE_ACCURACY_VALUE',
'Maximum model space distance between geometric entities at asserted c
onnectivities');
#477=UNCERTAINTY_MEASURE_WITH_UNIT(LENGTH_MEASURE(0.01),#480,
'DISTANCE_ACCURACY_VALUE',
'Maximum model space distance between geometric entities at asserted c
onnectivities');
#478=(
GEOMETRIC_REPRESENTATION_CONTEXT(3)
GLOBAL_UNCERTAINTY_ASSIGNED_CONTEXT((#476))
GLOBAL_UNIT_ASSIGNED_CONTEXT((#480,#482,#483))
REPRESENTATION_CONTEXT('','3D')
);
#479=(
GEOMETRIC_REPRESENTATION_CONTEXT(3)
GLOBAL_UNCERTAINTY_ASSIGNED_CONTEXT((#477))
GLOBAL_UNIT_ASSIGNED_CONTEXT((#480,#482,#483))
REPRESENTATION_CONTEXT('','3D')
);
#480=(
LENGTH_UNIT()
NAMED_UNIT(*)
SI_UNIT(.MILLI.,.METRE.)
);
#481=(
LENGTH_UNIT()
NAMED_UNIT(*)
SI_UNIT($,.METRE.)
);
#482=(
NAMED_UNIT(*)
PLANE_ANGLE_UNIT()
SI_UNIT($,.RADIAN.)
);
#483=(
NAMED_UNIT(*)
SI_UNIT($,.STERADIAN.)
SOLID_ANGLE_UNIT()
);
#484=SHAPE_DEFINITION_REPRESENTATION(#485,#486);
#485=PRODUCT_DEFINITION_SHAPE('',$,#488);
#486=SHAPE_REPRESENTATION('',(#288),#478);
#487=PRODUCT_DEFINITION_CONTEXT('part definition',#492,'design');
#488=PRODUCT_DEFINITION('(Unsaved)','(Unsaved)',#489,#487);
#489=PRODUCT_DEFINITION_FORMATION('',$,#494);
#490=PRODUCT_RELATED_PRODUCT_CATEGORY('(Unsaved)','(Unsaved)',(#494));
#491=APPLICATION_PROTOCOL_DEFINITION('international standard',
'automotive_design',2009,#492);
#492=APPLICATION_CONTEXT(
'Core Data for Automotive Mechanical Design Process');
#493=PRODUCT_CONTEXT('part definition',#492,'mechanical');
#494=PRODUCT('(Unsaved)','(Unsaved)',$,(#493));
#495=PRESENTATION_STYLE_ASSIGNMENT((#497));
#496=PRESENTATION_STYLE_ASSIGNMENT((#498));
#497=SURFACE_STYLE_USAGE(.BOTH.,#499);
#498=SURFACE_STYLE_USAGE(.BOTH.,#500);
#499=SURFACE_SIDE_STYLE('',(#501));
#500=SURFACE_SIDE_STYLE('',(#502));
#501=SURFACE_STYLE_FILL_AREA(#503);
#502=SURFACE_STYLE_FILL_AREA(#504);
#503=FILL_AREA_STYLE('Steel - Satin',(#505));
#504=FILL_AREA_STYLE('Aluminum - Bead Blasted',(#506));
#505=FILL_AREA_STYLE_COLOUR('Steel - Satin',#507);
#506=FILL_AREA_STYLE_COLOUR('Aluminum - Bead Blasted',#508);
#507=COLOUR_RGB('Steel - Satin',0.627450980392157,0.627450980392157,0.627450980392157);
#508=COLOUR_RGB('Aluminum - Bead Blasted',0.96078431372549,0.96078431372549,
0.964705882352941);
ENDSEC;
END-ISO-10303-21;
