ISO-10303-21;
HEADER;
/* Generated by software containing ST-Developer
 * from STEP Tools, Inc. (www.steptools.com) 
 */

FILE_DESCRIPTION(
/* description */ (''),
/* implementation_level */ '2;1');

FILE_NAME(
/* name */ 
'\\\\FLOTRONICS-SQL\\User Shared Folders\\Modular Solution\\A-Profile 
System\\Parts\\40 Series\\40-160-1\\40-160-0.stp',
/* time_stamp */ '2022-04-11T11:19:38-04:00',
/* author */ ('jmurphy'),
/* organization */ (''),
/* preprocessor_version */ 'ST-DEVELOPER v18.1',
/* originating_system */ 'AutoCAD Mechanical',
/* authorisation */ '');

FILE_SCHEMA (('AUTOMOTIVE_DESIGN { 1 0 10303 214 3 1 1 }'));
ENDSEC;

DATA;
#10=MECHANICAL_DESIGN_GEOMETRIC_PRESENTATION_REPRESENTATION('',(#14),#614);
#11=PRESENTATION_LAYER_ASSIGNMENT('0','0',(#15));
#12=SHAPE_REPRESENTATION_RELATIONSHIP('SRR','None',#620,#13);
#13=ADVANCED_BREP_SHAPE_REPRESENTATION('',(#15),#613);
#14=STYLED_ITEM('',(#629),#15);
#15=MANIFOLD_SOLID_BREP('336',#378);
#16=CYLINDRICAL_SURFACE('',#384,4.5);
#17=CYLINDRICAL_SURFACE('',#389,4.5);
#18=CYLINDRICAL_SURFACE('',#392,4.5);
#19=CYLINDRICAL_SURFACE('',#396,4.5);
#20=FACE_BOUND('',#53,.T.);
#21=FACE_BOUND('',#64,.T.);
#22=FACE_BOUND('',#69,.T.);
#23=FACE_BOUND('',#73,.T.);
#24=CIRCLE('',#382,4.5);
#25=CIRCLE('',#385,4.5);
#26=CIRCLE('',#386,4.5);
#27=CIRCLE('',#393,4.5);
#28=ELLIPSE('',#381,6.36396103067893,4.5);
#29=ELLIPSE('',#390,6.36396103067893,4.5);
#30=ELLIPSE('',#391,6.36396103067893,4.5);
#31=ELLIPSE('',#397,6.36396103067893,4.5);
#32=FACE_OUTER_BOUND('',#52,.T.);
#33=FACE_OUTER_BOUND('',#54,.T.);
#34=FACE_OUTER_BOUND('',#55,.T.);
#35=FACE_OUTER_BOUND('',#56,.T.);
#36=FACE_OUTER_BOUND('',#57,.T.);
#37=FACE_OUTER_BOUND('',#58,.T.);
#38=FACE_OUTER_BOUND('',#59,.T.);
#39=FACE_OUTER_BOUND('',#60,.T.);
#40=FACE_OUTER_BOUND('',#61,.T.);
#41=FACE_OUTER_BOUND('',#62,.T.);
#42=FACE_OUTER_BOUND('',#63,.T.);
#43=FACE_OUTER_BOUND('',#65,.T.);
#44=FACE_OUTER_BOUND('',#66,.T.);
#45=FACE_OUTER_BOUND('',#67,.T.);
#46=FACE_OUTER_BOUND('',#68,.T.);
#47=FACE_OUTER_BOUND('',#70,.T.);
#48=FACE_OUTER_BOUND('',#71,.T.);
#49=FACE_OUTER_BOUND('',#72,.T.);
#50=FACE_OUTER_BOUND('',#74,.T.);
#51=FACE_OUTER_BOUND('',#75,.T.);
#52=EDGE_LOOP('',(#242,#243,#244,#245));
#53=EDGE_LOOP('',(#246,#247,#248,#249));
#54=EDGE_LOOP('',(#250,#251,#252));
#55=EDGE_LOOP('',(#253,#254,#255,#256));
#56=EDGE_LOOP('',(#257,#258,#259,#260));
#57=EDGE_LOOP('',(#261,#262,#263,#264));
#58=EDGE_LOOP('',(#265,#266,#267,#268));
#59=EDGE_LOOP('',(#269,#270,#271,#272));
#60=EDGE_LOOP('',(#273,#274,#275,#276));
#61=EDGE_LOOP('',(#277,#278,#279,#280));
#62=EDGE_LOOP('',(#281,#282,#283,#284));
#63=EDGE_LOOP('',(#285,#286,#287,#288));
#64=EDGE_LOOP('',(#289,#290,#291,#292));
#65=EDGE_LOOP('',(#293,#294,#295));
#66=EDGE_LOOP('',(#296,#297,#298,#299));
#67=EDGE_LOOP('',(#300,#301,#302,#303));
#68=EDGE_LOOP('',(#304,#305,#306,#307));
#69=EDGE_LOOP('',(#308,#309,#310,#311));
#70=EDGE_LOOP('',(#312,#313,#314,#315,#316,#317));
#71=EDGE_LOOP('',(#318,#319,#320,#321,#322,#323));
#72=EDGE_LOOP('',(#324,#325,#326,#327));
#73=EDGE_LOOP('',(#328,#329,#330,#331));
#74=EDGE_LOOP('',(#332,#333,#334,#335,#336));
#75=EDGE_LOOP('',(#337,#338,#339,#340,#341));
#76=LINE('',#512,#118);
#77=LINE('',#514,#119);
#78=LINE('',#516,#120);
#79=LINE('',#517,#121);
#80=LINE('',#522,#122);
#81=LINE('',#525,#123);
#82=LINE('',#528,#124);
#83=LINE('',#529,#125);
#84=LINE('',#533,#126);
#85=LINE('',#537,#127);
#86=LINE('',#542,#128);
#87=LINE('',#543,#129);
#88=LINE('',#544,#130);
#89=LINE('',#547,#131);
#90=LINE('',#549,#132);
#91=LINE('',#550,#133);
#92=LINE('',#556,#134);
#93=LINE('',#558,#135);
#94=LINE('',#562,#136);
#95=LINE('',#563,#137);
#96=LINE('',#566,#138);
#97=LINE('',#567,#139);
#98=LINE('',#572,#140);
#99=LINE('',#573,#141);
#100=LINE('',#575,#142);
#101=LINE('',#578,#143);
#102=LINE('',#580,#144);
#103=LINE('',#581,#145);
#104=LINE('',#584,#146);
#105=LINE('',#586,#147);
#106=LINE('',#587,#148);
#107=LINE('',#591,#149);
#108=LINE('',#593,#150);
#109=LINE('',#595,#151);
#110=LINE('',#596,#152);
#111=LINE('',#598,#153);
#112=LINE('',#599,#154);
#113=LINE('',#602,#155);
#114=LINE('',#604,#156);
#115=LINE('',#605,#157);
#116=LINE('',#607,#158);
#117=LINE('',#608,#159);
#118=VECTOR('',#412,1.);
#119=VECTOR('',#413,1.);
#120=VECTOR('',#414,1.);
#121=VECTOR('',#415,1.);
#122=VECTOR('',#418,1.);
#123=VECTOR('',#421,1.);
#124=VECTOR('',#424,1.);
#125=VECTOR('',#425,1.);
#126=VECTOR('',#428,1.);
#127=VECTOR('',#431,1.);
#128=VECTOR('',#436,1.);
#129=VECTOR('',#437,1.);
#130=VECTOR('',#438,1.);
#131=VECTOR('',#441,1.);
#132=VECTOR('',#442,1.);
#133=VECTOR('',#443,1.);
#134=VECTOR('',#452,1.);
#135=VECTOR('',#453,1.);
#136=VECTOR('',#458,1.);
#137=VECTOR('',#459,1.);
#138=VECTOR('',#462,1.);
#139=VECTOR('',#463,1.);
#140=VECTOR('',#470,1.);
#141=VECTOR('',#471,1.);
#142=VECTOR('',#474,1.);
#143=VECTOR('',#477,1.);
#144=VECTOR('',#478,1.);
#145=VECTOR('',#479,1.);
#146=VECTOR('',#482,1.);
#147=VECTOR('',#483,1.);
#148=VECTOR('',#484,1.);
#149=VECTOR('',#487,1.);
#150=VECTOR('',#488,1.);
#151=VECTOR('',#489,1.);
#152=VECTOR('',#490,1.);
#153=VECTOR('',#493,1.);
#154=VECTOR('',#494,1.);
#155=VECTOR('',#497,1.);
#156=VECTOR('',#498,1.);
#157=VECTOR('',#499,1.);
#158=VECTOR('',#502,1.);
#159=VECTOR('',#503,1.);
#160=VERTEX_POINT('',#510);
#161=VERTEX_POINT('',#511);
#162=VERTEX_POINT('',#513);
#163=VERTEX_POINT('',#515);
#164=VERTEX_POINT('',#518);
#165=VERTEX_POINT('',#519);
#166=VERTEX_POINT('',#521);
#167=VERTEX_POINT('',#523);
#168=VERTEX_POINT('',#527);
#169=VERTEX_POINT('',#531);
#170=VERTEX_POINT('',#532);
#171=VERTEX_POINT('',#534);
#172=VERTEX_POINT('',#536);
#173=VERTEX_POINT('',#540);
#174=VERTEX_POINT('',#541);
#175=VERTEX_POINT('',#546);
#176=VERTEX_POINT('',#548);
#177=VERTEX_POINT('',#555);
#178=VERTEX_POINT('',#557);
#179=VERTEX_POINT('',#561);
#180=VERTEX_POINT('',#565);
#181=VERTEX_POINT('',#571);
#182=VERTEX_POINT('',#577);
#183=VERTEX_POINT('',#579);
#184=VERTEX_POINT('',#583);
#185=VERTEX_POINT('',#585);
#186=VERTEX_POINT('',#589);
#187=VERTEX_POINT('',#590);
#188=VERTEX_POINT('',#592);
#189=VERTEX_POINT('',#594);
#190=VERTEX_POINT('',#601);
#191=VERTEX_POINT('',#603);
#192=EDGE_CURVE('',#160,#161,#76,.T.);
#193=EDGE_CURVE('',#160,#162,#77,.T.);
#194=EDGE_CURVE('',#163,#162,#78,.T.);
#195=EDGE_CURVE('',#163,#161,#79,.T.);
#196=EDGE_CURVE('',#164,#165,#28,.T.);
#197=EDGE_CURVE('',#165,#166,#80,.T.);
#198=EDGE_CURVE('',#166,#167,#24,.T.);
#199=EDGE_CURVE('',#167,#164,#81,.T.);
#200=EDGE_CURVE('',#162,#168,#82,.T.);
#201=EDGE_CURVE('',#168,#160,#83,.T.);
#202=EDGE_CURVE('',#169,#170,#84,.T.);
#203=EDGE_CURVE('',#171,#169,#25,.T.);
#204=EDGE_CURVE('',#171,#172,#85,.T.);
#205=EDGE_CURVE('',#170,#172,#26,.T.);
#206=EDGE_CURVE('',#173,#174,#86,.T.);
#207=EDGE_CURVE('',#169,#174,#87,.T.);
#208=EDGE_CURVE('',#173,#170,#88,.T.);
#209=EDGE_CURVE('',#172,#175,#89,.T.);
#210=EDGE_CURVE('',#176,#171,#90,.T.);
#211=EDGE_CURVE('',#176,#175,#91,.T.);
#212=EDGE_CURVE('',#175,#173,#29,.T.);
#213=EDGE_CURVE('',#174,#176,#30,.T.);
#214=EDGE_CURVE('',#167,#177,#92,.T.);
#215=EDGE_CURVE('',#166,#178,#93,.T.);
#216=EDGE_CURVE('',#177,#178,#27,.T.);
#217=EDGE_CURVE('',#179,#164,#94,.T.);
#218=EDGE_CURVE('',#179,#177,#95,.T.);
#219=EDGE_CURVE('',#178,#180,#96,.T.);
#220=EDGE_CURVE('',#165,#180,#97,.T.);
#221=EDGE_CURVE('',#180,#179,#31,.T.);
#222=EDGE_CURVE('',#161,#181,#98,.T.);
#223=EDGE_CURVE('',#181,#168,#99,.T.);
#224=EDGE_CURVE('',#181,#163,#100,.T.);
#225=EDGE_CURVE('',#182,#163,#101,.T.);
#226=EDGE_CURVE('',#182,#183,#102,.T.);
#227=EDGE_CURVE('',#183,#181,#103,.T.);
#228=EDGE_CURVE('',#168,#184,#104,.T.);
#229=EDGE_CURVE('',#184,#185,#105,.T.);
#230=EDGE_CURVE('',#162,#185,#106,.T.);
#231=EDGE_CURVE('',#186,#187,#107,.T.);
#232=EDGE_CURVE('',#188,#187,#108,.T.);
#233=EDGE_CURVE('',#188,#189,#109,.T.);
#234=EDGE_CURVE('',#189,#186,#110,.T.);
#235=EDGE_CURVE('',#187,#184,#111,.T.);
#236=EDGE_CURVE('',#183,#188,#112,.T.);
#237=EDGE_CURVE('',#185,#190,#113,.T.);
#238=EDGE_CURVE('',#191,#190,#114,.T.);
#239=EDGE_CURVE('',#191,#182,#115,.T.);
#240=EDGE_CURVE('',#190,#186,#116,.T.);
#241=EDGE_CURVE('',#189,#191,#117,.T.);
#242=ORIENTED_EDGE('',*,*,#192,.F.);
#243=ORIENTED_EDGE('',*,*,#193,.T.);
#244=ORIENTED_EDGE('',*,*,#194,.F.);
#245=ORIENTED_EDGE('',*,*,#195,.T.);
#246=ORIENTED_EDGE('',*,*,#196,.T.);
#247=ORIENTED_EDGE('',*,*,#197,.T.);
#248=ORIENTED_EDGE('',*,*,#198,.T.);
#249=ORIENTED_EDGE('',*,*,#199,.T.);
#250=ORIENTED_EDGE('',*,*,#200,.F.);
#251=ORIENTED_EDGE('',*,*,#193,.F.);
#252=ORIENTED_EDGE('',*,*,#201,.F.);
#253=ORIENTED_EDGE('',*,*,#202,.F.);
#254=ORIENTED_EDGE('',*,*,#203,.F.);
#255=ORIENTED_EDGE('',*,*,#204,.T.);
#256=ORIENTED_EDGE('',*,*,#205,.F.);
#257=ORIENTED_EDGE('',*,*,#206,.T.);
#258=ORIENTED_EDGE('',*,*,#207,.F.);
#259=ORIENTED_EDGE('',*,*,#202,.T.);
#260=ORIENTED_EDGE('',*,*,#208,.F.);
#261=ORIENTED_EDGE('',*,*,#209,.F.);
#262=ORIENTED_EDGE('',*,*,#204,.F.);
#263=ORIENTED_EDGE('',*,*,#210,.F.);
#264=ORIENTED_EDGE('',*,*,#211,.T.);
#265=ORIENTED_EDGE('',*,*,#206,.F.);
#266=ORIENTED_EDGE('',*,*,#212,.F.);
#267=ORIENTED_EDGE('',*,*,#211,.F.);
#268=ORIENTED_EDGE('',*,*,#213,.F.);
#269=ORIENTED_EDGE('',*,*,#214,.F.);
#270=ORIENTED_EDGE('',*,*,#198,.F.);
#271=ORIENTED_EDGE('',*,*,#215,.T.);
#272=ORIENTED_EDGE('',*,*,#216,.F.);
#273=ORIENTED_EDGE('',*,*,#217,.T.);
#274=ORIENTED_EDGE('',*,*,#199,.F.);
#275=ORIENTED_EDGE('',*,*,#214,.T.);
#276=ORIENTED_EDGE('',*,*,#218,.F.);
#277=ORIENTED_EDGE('',*,*,#219,.F.);
#278=ORIENTED_EDGE('',*,*,#215,.F.);
#279=ORIENTED_EDGE('',*,*,#197,.F.);
#280=ORIENTED_EDGE('',*,*,#220,.T.);
#281=ORIENTED_EDGE('',*,*,#217,.F.);
#282=ORIENTED_EDGE('',*,*,#221,.F.);
#283=ORIENTED_EDGE('',*,*,#220,.F.);
#284=ORIENTED_EDGE('',*,*,#196,.F.);
#285=ORIENTED_EDGE('',*,*,#192,.T.);
#286=ORIENTED_EDGE('',*,*,#222,.T.);
#287=ORIENTED_EDGE('',*,*,#223,.T.);
#288=ORIENTED_EDGE('',*,*,#201,.T.);
#289=ORIENTED_EDGE('',*,*,#213,.T.);
#290=ORIENTED_EDGE('',*,*,#210,.T.);
#291=ORIENTED_EDGE('',*,*,#203,.T.);
#292=ORIENTED_EDGE('',*,*,#207,.T.);
#293=ORIENTED_EDGE('',*,*,#224,.F.);
#294=ORIENTED_EDGE('',*,*,#222,.F.);
#295=ORIENTED_EDGE('',*,*,#195,.F.);
#296=ORIENTED_EDGE('',*,*,#224,.T.);
#297=ORIENTED_EDGE('',*,*,#225,.F.);
#298=ORIENTED_EDGE('',*,*,#226,.T.);
#299=ORIENTED_EDGE('',*,*,#227,.T.);
#300=ORIENTED_EDGE('',*,*,#200,.T.);
#301=ORIENTED_EDGE('',*,*,#228,.T.);
#302=ORIENTED_EDGE('',*,*,#229,.T.);
#303=ORIENTED_EDGE('',*,*,#230,.F.);
#304=ORIENTED_EDGE('',*,*,#231,.T.);
#305=ORIENTED_EDGE('',*,*,#232,.F.);
#306=ORIENTED_EDGE('',*,*,#233,.T.);
#307=ORIENTED_EDGE('',*,*,#234,.T.);
#308=ORIENTED_EDGE('',*,*,#205,.T.);
#309=ORIENTED_EDGE('',*,*,#209,.T.);
#310=ORIENTED_EDGE('',*,*,#212,.T.);
#311=ORIENTED_EDGE('',*,*,#208,.T.);
#312=ORIENTED_EDGE('',*,*,#235,.T.);
#313=ORIENTED_EDGE('',*,*,#228,.F.);
#314=ORIENTED_EDGE('',*,*,#223,.F.);
#315=ORIENTED_EDGE('',*,*,#227,.F.);
#316=ORIENTED_EDGE('',*,*,#236,.T.);
#317=ORIENTED_EDGE('',*,*,#232,.T.);
#318=ORIENTED_EDGE('',*,*,#237,.T.);
#319=ORIENTED_EDGE('',*,*,#238,.F.);
#320=ORIENTED_EDGE('',*,*,#239,.T.);
#321=ORIENTED_EDGE('',*,*,#225,.T.);
#322=ORIENTED_EDGE('',*,*,#194,.T.);
#323=ORIENTED_EDGE('',*,*,#230,.T.);
#324=ORIENTED_EDGE('',*,*,#240,.T.);
#325=ORIENTED_EDGE('',*,*,#234,.F.);
#326=ORIENTED_EDGE('',*,*,#241,.T.);
#327=ORIENTED_EDGE('',*,*,#238,.T.);
#328=ORIENTED_EDGE('',*,*,#216,.T.);
#329=ORIENTED_EDGE('',*,*,#219,.T.);
#330=ORIENTED_EDGE('',*,*,#221,.T.);
#331=ORIENTED_EDGE('',*,*,#218,.T.);
#332=ORIENTED_EDGE('',*,*,#241,.F.);
#333=ORIENTED_EDGE('',*,*,#233,.F.);
#334=ORIENTED_EDGE('',*,*,#236,.F.);
#335=ORIENTED_EDGE('',*,*,#226,.F.);
#336=ORIENTED_EDGE('',*,*,#239,.F.);
#337=ORIENTED_EDGE('',*,*,#231,.F.);
#338=ORIENTED_EDGE('',*,*,#240,.F.);
#339=ORIENTED_EDGE('',*,*,#237,.F.);
#340=ORIENTED_EDGE('',*,*,#229,.F.);
#341=ORIENTED_EDGE('',*,*,#235,.F.);
#342=PLANE('',#380);
#343=PLANE('',#383);
#344=PLANE('',#387);
#345=PLANE('',#388);
#346=PLANE('',#394);
#347=PLANE('',#395);
#348=PLANE('',#398);
#349=PLANE('',#399);
#350=PLANE('',#400);
#351=PLANE('',#401);
#352=PLANE('',#402);
#353=PLANE('',#403);
#354=PLANE('',#404);
#355=PLANE('',#405);
#356=PLANE('',#406);
#357=PLANE('',#407);
#358=ADVANCED_FACE('',(#32,#20),#342,.T.);
#359=ADVANCED_FACE('',(#33),#343,.F.);
#360=ADVANCED_FACE('',(#34),#16,.F.);
#361=ADVANCED_FACE('',(#35),#344,.F.);
#362=ADVANCED_FACE('',(#36),#345,.T.);
#363=ADVANCED_FACE('',(#37),#17,.F.);
#364=ADVANCED_FACE('',(#38),#18,.F.);
#365=ADVANCED_FACE('',(#39),#346,.F.);
#366=ADVANCED_FACE('',(#40),#347,.T.);
#367=ADVANCED_FACE('',(#41),#19,.F.);
#368=ADVANCED_FACE('',(#42,#21),#348,.T.);
#369=ADVANCED_FACE('',(#43),#349,.T.);
#370=ADVANCED_FACE('',(#44),#350,.T.);
#371=ADVANCED_FACE('',(#45),#351,.T.);
#372=ADVANCED_FACE('',(#46,#22),#352,.T.);
#373=ADVANCED_FACE('',(#47),#353,.T.);
#374=ADVANCED_FACE('',(#48),#354,.T.);
#375=ADVANCED_FACE('',(#49,#23),#355,.T.);
#376=ADVANCED_FACE('',(#50),#356,.F.);
#377=ADVANCED_FACE('',(#51),#357,.T.);
#378=CLOSED_SHELL('',(#358,#359,#360,#361,#362,#363,#364,#365,#366,#367,
#368,#369,#370,#371,#372,#373,#374,#375,#376,#377));
#379=AXIS2_PLACEMENT_3D('placement',#508,#408,#409);
#380=AXIS2_PLACEMENT_3D('',#509,#410,#411);
#381=AXIS2_PLACEMENT_3D('',#520,#416,#417);
#382=AXIS2_PLACEMENT_3D('',#524,#419,#420);
#383=AXIS2_PLACEMENT_3D('',#526,#422,#423);
#384=AXIS2_PLACEMENT_3D('',#530,#426,#427);
#385=AXIS2_PLACEMENT_3D('',#535,#429,#430);
#386=AXIS2_PLACEMENT_3D('',#538,#432,#433);
#387=AXIS2_PLACEMENT_3D('',#539,#434,#435);
#388=AXIS2_PLACEMENT_3D('',#545,#439,#440);
#389=AXIS2_PLACEMENT_3D('',#551,#444,#445);
#390=AXIS2_PLACEMENT_3D('',#552,#446,#447);
#391=AXIS2_PLACEMENT_3D('',#553,#448,#449);
#392=AXIS2_PLACEMENT_3D('',#554,#450,#451);
#393=AXIS2_PLACEMENT_3D('',#559,#454,#455);
#394=AXIS2_PLACEMENT_3D('',#560,#456,#457);
#395=AXIS2_PLACEMENT_3D('',#564,#460,#461);
#396=AXIS2_PLACEMENT_3D('',#568,#464,#465);
#397=AXIS2_PLACEMENT_3D('',#569,#466,#467);
#398=AXIS2_PLACEMENT_3D('',#570,#468,#469);
#399=AXIS2_PLACEMENT_3D('',#574,#472,#473);
#400=AXIS2_PLACEMENT_3D('',#576,#475,#476);
#401=AXIS2_PLACEMENT_3D('',#582,#480,#481);
#402=AXIS2_PLACEMENT_3D('',#588,#485,#486);
#403=AXIS2_PLACEMENT_3D('',#597,#491,#492);
#404=AXIS2_PLACEMENT_3D('',#600,#495,#496);
#405=AXIS2_PLACEMENT_3D('',#606,#500,#501);
#406=AXIS2_PLACEMENT_3D('',#609,#504,#505);
#407=AXIS2_PLACEMENT_3D('',#610,#506,#507);
#408=DIRECTION('axis',(0.,0.,1.));
#409=DIRECTION('refdir',(1.,0.,0.));
#410=DIRECTION('center_axis',(0.,0.,1.));
#411=DIRECTION('ref_axis',(-1.,0.,0.));
#412=DIRECTION('',(1.,0.,0.));
#413=DIRECTION('',(0.,-1.,0.));
#414=DIRECTION('',(-1.,0.,0.));
#415=DIRECTION('',(0.,1.,0.));
#416=DIRECTION('center_axis',(0.,0.,-1.));
#417=DIRECTION('ref_axis',(0.,-1.,0.));
#418=DIRECTION('',(0.,-1.,0.));
#419=DIRECTION('center_axis',(0.,0.,-1.));
#420=DIRECTION('ref_axis',(-1.,0.,0.));
#421=DIRECTION('',(0.,1.,0.));
#422=DIRECTION('center_axis',(-1.,0.,0.));
#423=DIRECTION('ref_axis',(0.,-1.,0.));
#424=DIRECTION('',(0.,0.707106781186547,0.707106781186547));
#425=DIRECTION('',(0.,0.,-1.));
#426=DIRECTION('center_axis',(0.,-1.,0.));
#427=DIRECTION('ref_axis',(1.,0.,0.));
#428=DIRECTION('',(0.,1.,0.));
#429=DIRECTION('center_axis',(0.,1.,0.));
#430=DIRECTION('ref_axis',(1.,0.,0.));
#431=DIRECTION('',(0.,1.,0.));
#432=DIRECTION('center_axis',(0.,-1.,0.));
#433=DIRECTION('ref_axis',(1.,0.,0.));
#434=DIRECTION('center_axis',(1.,0.,0.));
#435=DIRECTION('ref_axis',(0.,0.,1.));
#436=DIRECTION('',(0.,-0.707106781186547,0.707106781186547));
#437=DIRECTION('',(0.,0.,-1.));
#438=DIRECTION('',(0.,0.,1.));
#439=DIRECTION('center_axis',(1.,0.,0.));
#440=DIRECTION('ref_axis',(0.,0.,1.));
#441=DIRECTION('',(0.,0.,-1.));
#442=DIRECTION('',(0.,0.,1.));
#443=DIRECTION('',(0.,0.707106781186547,-0.707106781186547));
#444=DIRECTION('center_axis',(0.,-0.707106781186548,0.707106781186548));
#445=DIRECTION('ref_axis',(1.,0.,0.));
#446=DIRECTION('center_axis',(0.,-1.,0.));
#447=DIRECTION('ref_axis',(0.,0.,1.));
#448=DIRECTION('center_axis',(0.,1.,0.));
#449=DIRECTION('ref_axis',(0.,0.,1.));
#450=DIRECTION('center_axis',(0.,0.,1.));
#451=DIRECTION('ref_axis',(-1.,0.,0.));
#452=DIRECTION('',(0.,0.,-1.));
#453=DIRECTION('',(0.,0.,-1.));
#454=DIRECTION('center_axis',(0.,0.,1.));
#455=DIRECTION('ref_axis',(-1.,0.,0.));
#456=DIRECTION('center_axis',(-1.,0.,0.));
#457=DIRECTION('ref_axis',(0.,-1.,0.));
#458=DIRECTION('',(0.,-0.707106781186547,0.707106781186547));
#459=DIRECTION('',(0.,-1.,0.));
#460=DIRECTION('center_axis',(-1.,0.,0.));
#461=DIRECTION('ref_axis',(0.,-1.,0.));
#462=DIRECTION('',(0.,1.,0.));
#463=DIRECTION('',(0.,0.707106781186547,-0.707106781186547));
#464=DIRECTION('center_axis',(0.,-0.707106781186548,0.707106781186548));
#465=DIRECTION('ref_axis',(-1.,0.,0.));
#466=DIRECTION('center_axis',(0.,0.,1.));
#467=DIRECTION('ref_axis',(0.,-1.,0.));
#468=DIRECTION('center_axis',(0.,-1.,0.));
#469=DIRECTION('ref_axis',(1.,0.,0.));
#470=DIRECTION('',(0.,0.,1.));
#471=DIRECTION('',(-1.,0.,0.));
#472=DIRECTION('center_axis',(-1.,0.,0.));
#473=DIRECTION('ref_axis',(0.,-1.,0.));
#474=DIRECTION('',(0.,-0.707106781186547,-0.707106781186547));
#475=DIRECTION('center_axis',(0.,-0.707106781186548,0.707106781186548));
#476=DIRECTION('ref_axis',(0.,0.707106781186548,0.707106781186548));
#477=DIRECTION('',(-1.,0.,0.));
#478=DIRECTION('',(0.,0.707106781186547,0.707106781186547));
#479=DIRECTION('',(-1.,0.,0.));
#480=DIRECTION('center_axis',(0.,-0.707106781186548,0.707106781186548));
#481=DIRECTION('ref_axis',(0.,0.707106781186548,0.707106781186548));
#482=DIRECTION('',(-1.,0.,0.));
#483=DIRECTION('',(0.,-0.707106781186547,-0.707106781186547));
#484=DIRECTION('',(-1.,0.,0.));
#485=DIRECTION('center_axis',(0.,1.,0.));
#486=DIRECTION('ref_axis',(0.,0.,-1.));
#487=DIRECTION('',(0.,0.,1.));
#488=DIRECTION('',(-1.,0.,0.));
#489=DIRECTION('',(0.,0.,-1.));
#490=DIRECTION('',(-1.,0.,0.));
#491=DIRECTION('center_axis',(0.,0.,1.));
#492=DIRECTION('ref_axis',(0.,1.,0.));
#493=DIRECTION('',(0.,-1.,0.));
#494=DIRECTION('',(0.,1.,0.));
#495=DIRECTION('center_axis',(0.,-1.,0.));
#496=DIRECTION('ref_axis',(0.,0.,1.));
#497=DIRECTION('',(0.,0.,-1.));
#498=DIRECTION('',(-1.,0.,0.));
#499=DIRECTION('',(0.,0.,1.));
#500=DIRECTION('center_axis',(0.,0.,-1.));
#501=DIRECTION('ref_axis',(0.,-1.,0.));
#502=DIRECTION('',(0.,1.,0.));
#503=DIRECTION('',(0.,-1.,0.));
#504=DIRECTION('center_axis',(-1.,0.,0.));
#505=DIRECTION('ref_axis',(0.,-1.,0.));
#506=DIRECTION('center_axis',(-1.,0.,0.));
#507=DIRECTION('ref_axis',(0.,-1.,0.));
#508=CARTESIAN_POINT('',(0.,0.,0.));
#509=CARTESIAN_POINT('Origin',(0.,-27.,7.));
#510=CARTESIAN_POINT('',(-7.5,-7.,7.));
#511=CARTESIAN_POINT('',(7.5,-7.,7.));
#512=CARTESIAN_POINT('',(0.,-7.,7.));
#513=CARTESIAN_POINT('',(-7.5,-40.,7.));
#514=CARTESIAN_POINT('',(-7.5,-7.,7.));
#515=CARTESIAN_POINT('',(7.5,-40.,7.));
#516=CARTESIAN_POINT('',(9.5,-40.,7.));
#517=CARTESIAN_POINT('',(7.5,-27.,7.));
#518=CARTESIAN_POINT('',(-4.5,-18.36396103,7.));
#519=CARTESIAN_POINT('',(4.5,-18.36396103,7.));
#520=CARTESIAN_POINT('Origin',(0.,-18.36396103,7.));
#521=CARTESIAN_POINT('',(4.5,-22.5,7.));
#522=CARTESIAN_POINT('',(4.5,-22.4785533904235,7.));
#523=CARTESIAN_POINT('',(-4.5,-22.5,7.));
#524=CARTESIAN_POINT('Origin',(0.,-22.5,7.));
#525=CARTESIAN_POINT('',(-4.5,-22.4785533904235,7.));
#526=CARTESIAN_POINT('Origin',(-7.5,-27.,27.));
#527=CARTESIAN_POINT('',(-7.5,-7.,40.));
#528=CARTESIAN_POINT('',(-7.5,-23.5,23.5));
#529=CARTESIAN_POINT('',(-7.5,-7.,27.));
#530=CARTESIAN_POINT('Origin',(0.,-3.5,22.5));
#531=CARTESIAN_POINT('',(4.5,-7.,22.5));
#532=CARTESIAN_POINT('',(4.5,0.,22.5));
#533=CARTESIAN_POINT('',(4.5,-7.,22.5));
#534=CARTESIAN_POINT('',(-4.5,-7.,22.5));
#535=CARTESIAN_POINT('Origin',(0.,-7.,22.5));
#536=CARTESIAN_POINT('',(-4.5,0.,22.5));
#537=CARTESIAN_POINT('',(-4.5,-7.,22.5));
#538=CARTESIAN_POINT('Origin',(0.,0.,22.5));
#539=CARTESIAN_POINT('Origin',(4.5,-2.73845812282895,17.9571067808471));
#540=CARTESIAN_POINT('',(4.5,0.,11.36396103));
#541=CARTESIAN_POINT('',(4.5,-7.,18.36396103));
#542=CARTESIAN_POINT('',(4.5,3.45249194152602E-11,11.3639610299655));
#543=CARTESIAN_POINT('',(4.5,-7.,22.4785533904235));
#544=CARTESIAN_POINT('',(4.5,0.,18.9785533904235));
#545=CARTESIAN_POINT('Origin',(-4.5,-2.73845812282895,17.9571067808471));
#546=CARTESIAN_POINT('',(-4.5,0.,11.36396103));
#547=CARTESIAN_POINT('',(-4.5,0.,18.9785533904235));
#548=CARTESIAN_POINT('',(-4.5,-7.,18.36396103));
#549=CARTESIAN_POINT('',(-4.5,-7.,22.4785533904235));
#550=CARTESIAN_POINT('',(-4.5,3.45249194152602E-11,11.3639610299655));
#551=CARTESIAN_POINT('Origin',(0.,3.45243833521636E-11,11.3639610299655));
#552=CARTESIAN_POINT('Origin',(0.,0.,11.36396103));
#553=CARTESIAN_POINT('Origin',(0.,-7.,18.36396103));
#554=CARTESIAN_POINT('Origin',(0.,-22.5,3.5));
#555=CARTESIAN_POINT('',(-4.5,-22.5,0.));
#556=CARTESIAN_POINT('',(-4.5,-22.5,7.));
#557=CARTESIAN_POINT('',(4.5,-22.5,0.));
#558=CARTESIAN_POINT('',(4.5,-22.5,7.));
#559=CARTESIAN_POINT('Origin',(0.,-22.5,0.));
#560=CARTESIAN_POINT('Origin',(-4.5,-17.9571067808471,2.73845812282895));
#561=CARTESIAN_POINT('',(-4.5,-11.36396103,0.));
#562=CARTESIAN_POINT('',(-4.5,-11.3639610299655,-3.45249194152602E-11));
#563=CARTESIAN_POINT('',(-4.5,-18.9785533904235,0.));
#564=CARTESIAN_POINT('Origin',(4.5,-17.9571067808471,2.73845812282895));
#565=CARTESIAN_POINT('',(4.5,-11.36396103,0.));
#566=CARTESIAN_POINT('',(4.5,-18.9785533904235,0.));
#567=CARTESIAN_POINT('',(4.5,-11.3639610299655,-3.45249194152602E-11));
#568=CARTESIAN_POINT('Origin',(0.,-11.3639610299655,-3.45243833521636E-11));
#569=CARTESIAN_POINT('Origin',(0.,-11.36396103,0.));
#570=CARTESIAN_POINT('Origin',(0.,-7.,27.));
#571=CARTESIAN_POINT('',(7.5,-7.,40.));
#572=CARTESIAN_POINT('',(7.5,-7.,27.));
#573=CARTESIAN_POINT('',(9.5,-7.,40.));
#574=CARTESIAN_POINT('Origin',(7.5,-27.,27.));
#575=CARTESIAN_POINT('',(7.5,-23.5,23.5));
#576=CARTESIAN_POINT('Origin',(9.5,-23.5,23.5));
#577=CARTESIAN_POINT('',(9.5,-40.,7.));
#578=CARTESIAN_POINT('',(9.5,-40.,7.));
#579=CARTESIAN_POINT('',(9.5,-7.,40.));
#580=CARTESIAN_POINT('',(9.5,-40.,7.));
#581=CARTESIAN_POINT('',(9.5,-7.,40.));
#582=CARTESIAN_POINT('Origin',(9.5,-23.5,23.5));
#583=CARTESIAN_POINT('',(-9.5,-7.,40.));
#584=CARTESIAN_POINT('',(9.5,-7.,40.));
#585=CARTESIAN_POINT('',(-9.5,-40.,7.));
#586=CARTESIAN_POINT('',(-9.5,-40.,7.));
#587=CARTESIAN_POINT('',(9.5,-40.,7.));
#588=CARTESIAN_POINT('Origin',(9.5,0.,20.));
#589=CARTESIAN_POINT('',(-9.5,0.,0.));
#590=CARTESIAN_POINT('',(-9.5,0.,40.));
#591=CARTESIAN_POINT('',(-9.5,0.,40.));
#592=CARTESIAN_POINT('',(9.5,0.,40.));
#593=CARTESIAN_POINT('',(9.5,0.,40.));
#594=CARTESIAN_POINT('',(9.5,0.,0.));
#595=CARTESIAN_POINT('',(9.5,0.,40.));
#596=CARTESIAN_POINT('',(9.5,0.,0.));
#597=CARTESIAN_POINT('Origin',(9.5,-3.5,40.));
#598=CARTESIAN_POINT('',(-9.5,-7.,40.));
#599=CARTESIAN_POINT('',(9.5,-7.,40.));
#600=CARTESIAN_POINT('Origin',(9.5,-40.,3.5));
#601=CARTESIAN_POINT('',(-9.5,-40.,0.));
#602=CARTESIAN_POINT('',(-9.5,-40.,0.));
#603=CARTESIAN_POINT('',(9.5,-40.,0.));
#604=CARTESIAN_POINT('',(9.5,-40.,0.));
#605=CARTESIAN_POINT('',(9.5,-40.,0.));
#606=CARTESIAN_POINT('Origin',(9.5,-20.,0.));
#607=CARTESIAN_POINT('',(-9.5,0.,0.));
#608=CARTESIAN_POINT('',(9.5,0.,0.));
#609=CARTESIAN_POINT('Origin',(9.5,-15.6482371625347,15.6482371625347));
#610=CARTESIAN_POINT('Origin',(-9.5,-15.6482371625347,15.6482371625347));
#611=UNCERTAINTY_MEASURE_WITH_UNIT(LENGTH_MEASURE(0.01),#615,
'DISTANCE_ACCURACY_VALUE',
'Maximum model space distance between geometric entities at asserted c
onnectivities');
#612=UNCERTAINTY_MEASURE_WITH_UNIT(LENGTH_MEASURE(0.01),#615,
'DISTANCE_ACCURACY_VALUE',
'Maximum model space distance between geometric entities at asserted c
onnectivities');
#613=(
GEOMETRIC_REPRESENTATION_CONTEXT(3)
GLOBAL_UNCERTAINTY_ASSIGNED_CONTEXT((#611))
GLOBAL_UNIT_ASSIGNED_CONTEXT((#615,#616,#617))
REPRESENTATION_CONTEXT('','3D')
);
#614=(
GEOMETRIC_REPRESENTATION_CONTEXT(3)
GLOBAL_UNCERTAINTY_ASSIGNED_CONTEXT((#612))
GLOBAL_UNIT_ASSIGNED_CONTEXT((#615,#616,#617))
REPRESENTATION_CONTEXT('','3D')
);
#615=(
LENGTH_UNIT()
NAMED_UNIT(*)
SI_UNIT(.MILLI.,.METRE.)
);
#616=(
NAMED_UNIT(*)
PLANE_ANGLE_UNIT()
SI_UNIT($,.RADIAN.)
);
#617=(
NAMED_UNIT(*)
SI_UNIT($,.STERADIAN.)
SOLID_ANGLE_UNIT()
);
#618=SHAPE_DEFINITION_REPRESENTATION(#619,#620);
#619=PRODUCT_DEFINITION_SHAPE('',$,#622);
#620=SHAPE_REPRESENTATION('',(#379),#613);
#621=PRODUCT_DEFINITION_CONTEXT('part definition',#626,'design');
#622=PRODUCT_DEFINITION('Product','Product',#623,#621);
#623=PRODUCT_DEFINITION_FORMATION('',$,#628);
#624=PRODUCT_RELATED_PRODUCT_CATEGORY('Product','Product',(#628));
#625=APPLICATION_PROTOCOL_DEFINITION('international standard',
'automotive_design',2009,#626);
#626=APPLICATION_CONTEXT(
'Core Data for Automotive Mechanical Design Process');
#627=PRODUCT_CONTEXT('part definition',#626,'mechanical');
#628=PRODUCT('Product','Product',$,(#627));
#629=PRESENTATION_STYLE_ASSIGNMENT((#630));
#630=SURFACE_STYLE_USAGE(.BOTH.,#631);
#631=SURFACE_SIDE_STYLE('',(#632));
#632=SURFACE_STYLE_FILL_AREA(#633);
#633=FILL_AREA_STYLE('',(#634));
#634=FILL_AREA_STYLE_COLOUR('',#635);
#635=COLOUR_RGB('',1.,1.,1.);
ENDSEC;
END-ISO-10303-21;
