ISO-10303-21;
HEADER;
/* Generated by software containing ST-Developer
 * from STEP Tools, Inc. (www.steptools.com) 
 */

FILE_DESCRIPTION(
/* description */ (''),
/* implementation_level */ '2;1');

FILE_NAME(
/* name */ 
'Z:/Modular Solution/A-Profile System/Parts/40 Series/40-513-1/CAD/40-
513-1.step',
/* time_stamp */ '2021-09-23T08:40:03-04:00',
/* author */ (''),
/* organization */ (''),
/* preprocessor_version */ 'ST-DEVELOPER v18.1',
/* originating_system */ 'Autodesk Translation Framework v10.10.0.1391',

/* authorisation */ '');

FILE_SCHEMA (('AUTOMOTIVE_DESIGN { 1 0 10303 214 3 1 1 }'));
ENDSEC;

DATA;
#10=MECHANICAL_DESIGN_GEOMETRIC_PRESENTATION_REPRESENTATION('',(#13),#552);
#11=SHAPE_REPRESENTATION_RELATIONSHIP('SRR','None',#559,#12);
#12=ADVANCED_BREP_SHAPE_REPRESENTATION('',(#14),#551);
#13=STYLED_ITEM('',(#569),#14);
#14=MANIFOLD_SOLID_BREP('Body1',#318);
#15=CONICAL_SURFACE('',#353,4.,0.7853981634);
#16=CONICAL_SURFACE('',#358,3.5,0.7853981634);
#17=CONICAL_SURFACE('',#359,4.,0.7853981634);
#18=CONICAL_SURFACE('',#364,3.5,0.7853981634);
#19=CYLINDRICAL_SURFACE('',#337,3.);
#20=CYLINDRICAL_SURFACE('',#340,3.);
#21=CYLINDRICAL_SURFACE('',#346,3.);
#22=CYLINDRICAL_SURFACE('',#356,3.5);
#23=CYLINDRICAL_SURFACE('',#362,3.5);
#24=FACE_BOUND('',#62,.T.);
#25=FACE_BOUND('',#64,.T.);
#26=FACE_BOUND('',#69,.T.);
#27=FACE_BOUND('',#73,.T.);
#28=CIRCLE('',#333,4.);
#29=CIRCLE('',#335,4.);
#30=CIRCLE('',#338,3.);
#31=CIRCLE('',#339,3.);
#32=CIRCLE('',#341,3.);
#33=CIRCLE('',#342,3.);
#34=CIRCLE('',#344,4.);
#35=CIRCLE('',#347,3.);
#36=CIRCLE('',#348,3.);
#37=CIRCLE('',#350,4.);
#38=CIRCLE('',#354,3.5);
#39=CIRCLE('',#355,3.5);
#40=CIRCLE('',#357,3.5);
#41=CIRCLE('',#360,3.5);
#42=CIRCLE('',#361,3.5);
#43=CIRCLE('',#363,3.5);
#44=FACE_OUTER_BOUND('',#61,.T.);
#45=FACE_OUTER_BOUND('',#63,.T.);
#46=FACE_OUTER_BOUND('',#65,.T.);
#47=FACE_OUTER_BOUND('',#66,.T.);
#48=FACE_OUTER_BOUND('',#67,.T.);
#49=FACE_OUTER_BOUND('',#68,.T.);
#50=FACE_OUTER_BOUND('',#70,.T.);
#51=FACE_OUTER_BOUND('',#71,.T.);
#52=FACE_OUTER_BOUND('',#72,.T.);
#53=FACE_OUTER_BOUND('',#74,.T.);
#54=FACE_OUTER_BOUND('',#75,.T.);
#55=FACE_OUTER_BOUND('',#76,.T.);
#56=FACE_OUTER_BOUND('',#77,.T.);
#57=FACE_OUTER_BOUND('',#78,.T.);
#58=FACE_OUTER_BOUND('',#79,.T.);
#59=FACE_OUTER_BOUND('',#80,.T.);
#60=FACE_OUTER_BOUND('',#81,.T.);
#61=EDGE_LOOP('',(#207,#208,#209,#210));
#62=EDGE_LOOP('',(#211));
#63=EDGE_LOOP('',(#212,#213,#214,#215));
#64=EDGE_LOOP('',(#216));
#65=EDGE_LOOP('',(#217,#218,#219,#220));
#66=EDGE_LOOP('',(#221,#222,#223,#224));
#67=EDGE_LOOP('',(#225,#226,#227,#228));
#68=EDGE_LOOP('',(#229,#230,#231,#232));
#69=EDGE_LOOP('',(#233));
#70=EDGE_LOOP('',(#234,#235,#236,#237));
#71=EDGE_LOOP('',(#238,#239,#240,#241));
#72=EDGE_LOOP('',(#242,#243,#244,#245));
#73=EDGE_LOOP('',(#246));
#74=EDGE_LOOP('',(#247,#248,#249,#250,#251,#252,#253,#254,#255));
#75=EDGE_LOOP('',(#256,#257,#258,#259,#260,#261,#262,#263,#264));
#76=EDGE_LOOP('',(#265,#266,#267,#268,#269));
#77=EDGE_LOOP('',(#270,#271,#272,#273,#274));
#78=EDGE_LOOP('',(#275,#276,#277,#278));
#79=EDGE_LOOP('',(#279,#280,#281,#282,#283));
#80=EDGE_LOOP('',(#284,#285,#286,#287,#288));
#81=EDGE_LOOP('',(#289,#290,#291,#292));
#82=LINE('',#464,#109);
#83=LINE('',#466,#110);
#84=LINE('',#468,#111);
#85=LINE('',#469,#112);
#86=LINE('',#474,#113);
#87=LINE('',#476,#114);
#88=LINE('',#477,#115);
#89=LINE('',#482,#116);
#90=LINE('',#484,#117);
#91=LINE('',#485,#118);
#92=LINE('',#491,#119);
#93=LINE('',#497,#120);
#94=LINE('',#500,#121);
#95=LINE('',#503,#122);
#96=LINE('',#505,#123);
#97=LINE('',#506,#124);
#98=LINE('',#510,#125);
#99=LINE('',#511,#126);
#100=LINE('',#516,#127);
#101=LINE('',#519,#128);
#102=LINE('',#520,#129);
#103=LINE('',#530,#130);
#104=LINE('',#534,#131);
#105=LINE('',#536,#132);
#106=LINE('',#542,#133);
#107=LINE('',#546,#134);
#108=LINE('',#548,#135);
#109=VECTOR('',#369,1000.);
#110=VECTOR('',#370,1000.);
#111=VECTOR('',#371,1000.);
#112=VECTOR('',#372,1000.);
#113=VECTOR('',#377,1000.);
#114=VECTOR('',#378,1000.);
#115=VECTOR('',#379,1000.);
#116=VECTOR('',#384,1000.);
#117=VECTOR('',#385,1000.);
#118=VECTOR('',#386,1000.);
#119=VECTOR('',#393,1000.);
#120=VECTOR('',#398,1000.);
#121=VECTOR('',#401,1000.);
#122=VECTOR('',#404,1000.);
#123=VECTOR('',#405,1000.);
#124=VECTOR('',#406,1000.);
#125=VECTOR('',#411,1000.);
#126=VECTOR('',#412,1000.);
#127=VECTOR('',#417,1000.);
#128=VECTOR('',#422,1000.);
#129=VECTOR('',#423,1000.);
#130=VECTOR('',#436,4.);
#131=VECTOR('',#441,3.5);
#132=VECTOR('',#444,3.5);
#133=VECTOR('',#451,4.);
#134=VECTOR('',#456,3.5);
#135=VECTOR('',#459,3.5);
#136=VERTEX_POINT('',#462);
#137=VERTEX_POINT('',#463);
#138=VERTEX_POINT('',#465);
#139=VERTEX_POINT('',#467);
#140=VERTEX_POINT('',#470);
#141=VERTEX_POINT('',#473);
#142=VERTEX_POINT('',#475);
#143=VERTEX_POINT('',#478);
#144=VERTEX_POINT('',#481);
#145=VERTEX_POINT('',#483);
#146=VERTEX_POINT('',#487);
#147=VERTEX_POINT('',#489);
#148=VERTEX_POINT('',#493);
#149=VERTEX_POINT('',#494);
#150=VERTEX_POINT('',#496);
#151=VERTEX_POINT('',#498);
#152=VERTEX_POINT('',#502);
#153=VERTEX_POINT('',#504);
#154=VERTEX_POINT('',#507);
#155=VERTEX_POINT('',#513);
#156=VERTEX_POINT('',#515);
#157=VERTEX_POINT('',#521);
#158=VERTEX_POINT('',#526);
#159=VERTEX_POINT('',#527);
#160=VERTEX_POINT('',#532);
#161=VERTEX_POINT('',#538);
#162=VERTEX_POINT('',#539);
#163=VERTEX_POINT('',#544);
#164=EDGE_CURVE('',#136,#137,#82,.T.);
#165=EDGE_CURVE('',#138,#137,#83,.T.);
#166=EDGE_CURVE('',#139,#138,#84,.T.);
#167=EDGE_CURVE('',#139,#136,#85,.T.);
#168=EDGE_CURVE('',#140,#140,#28,.T.);
#169=EDGE_CURVE('',#137,#141,#86,.T.);
#170=EDGE_CURVE('',#142,#141,#87,.T.);
#171=EDGE_CURVE('',#138,#142,#88,.T.);
#172=EDGE_CURVE('',#143,#143,#29,.T.);
#173=EDGE_CURVE('',#144,#136,#89,.T.);
#174=EDGE_CURVE('',#145,#139,#90,.T.);
#175=EDGE_CURVE('',#145,#144,#91,.T.);
#176=EDGE_CURVE('',#146,#144,#30,.T.);
#177=EDGE_CURVE('',#147,#145,#31,.T.);
#178=EDGE_CURVE('',#147,#146,#92,.T.);
#179=EDGE_CURVE('',#148,#149,#32,.T.);
#180=EDGE_CURVE('',#150,#149,#93,.T.);
#181=EDGE_CURVE('',#151,#150,#33,.T.);
#182=EDGE_CURVE('',#151,#148,#94,.T.);
#183=EDGE_CURVE('',#149,#152,#95,.T.);
#184=EDGE_CURVE('',#153,#152,#96,.T.);
#185=EDGE_CURVE('',#150,#153,#97,.T.);
#186=EDGE_CURVE('',#154,#154,#34,.T.);
#187=EDGE_CURVE('',#141,#148,#98,.T.);
#188=EDGE_CURVE('',#142,#151,#99,.T.);
#189=EDGE_CURVE('',#155,#152,#35,.T.);
#190=EDGE_CURVE('',#156,#155,#100,.T.);
#191=EDGE_CURVE('',#156,#153,#36,.T.);
#192=EDGE_CURVE('',#155,#146,#101,.T.);
#193=EDGE_CURVE('',#156,#147,#102,.T.);
#194=EDGE_CURVE('',#157,#157,#37,.T.);
#195=EDGE_CURVE('',#158,#159,#38,.T.);
#196=EDGE_CURVE('',#159,#158,#39,.T.);
#197=EDGE_CURVE('',#158,#143,#103,.T.);
#198=EDGE_CURVE('',#160,#160,#40,.T.);
#199=EDGE_CURVE('',#160,#159,#104,.T.);
#200=EDGE_CURVE('',#160,#154,#105,.T.);
#201=EDGE_CURVE('',#161,#162,#41,.T.);
#202=EDGE_CURVE('',#162,#161,#42,.T.);
#203=EDGE_CURVE('',#161,#157,#106,.T.);
#204=EDGE_CURVE('',#163,#163,#43,.T.);
#205=EDGE_CURVE('',#163,#162,#107,.T.);
#206=EDGE_CURVE('',#163,#140,#108,.T.);
#207=ORIENTED_EDGE('',*,*,#164,.T.);
#208=ORIENTED_EDGE('',*,*,#165,.F.);
#209=ORIENTED_EDGE('',*,*,#166,.F.);
#210=ORIENTED_EDGE('',*,*,#167,.T.);
#211=ORIENTED_EDGE('',*,*,#168,.F.);
#212=ORIENTED_EDGE('',*,*,#169,.T.);
#213=ORIENTED_EDGE('',*,*,#170,.F.);
#214=ORIENTED_EDGE('',*,*,#171,.F.);
#215=ORIENTED_EDGE('',*,*,#165,.T.);
#216=ORIENTED_EDGE('',*,*,#172,.T.);
#217=ORIENTED_EDGE('',*,*,#173,.T.);
#218=ORIENTED_EDGE('',*,*,#167,.F.);
#219=ORIENTED_EDGE('',*,*,#174,.F.);
#220=ORIENTED_EDGE('',*,*,#175,.T.);
#221=ORIENTED_EDGE('',*,*,#176,.T.);
#222=ORIENTED_EDGE('',*,*,#175,.F.);
#223=ORIENTED_EDGE('',*,*,#177,.F.);
#224=ORIENTED_EDGE('',*,*,#178,.T.);
#225=ORIENTED_EDGE('',*,*,#179,.T.);
#226=ORIENTED_EDGE('',*,*,#180,.F.);
#227=ORIENTED_EDGE('',*,*,#181,.F.);
#228=ORIENTED_EDGE('',*,*,#182,.T.);
#229=ORIENTED_EDGE('',*,*,#183,.T.);
#230=ORIENTED_EDGE('',*,*,#184,.F.);
#231=ORIENTED_EDGE('',*,*,#185,.F.);
#232=ORIENTED_EDGE('',*,*,#180,.T.);
#233=ORIENTED_EDGE('',*,*,#186,.F.);
#234=ORIENTED_EDGE('',*,*,#187,.T.);
#235=ORIENTED_EDGE('',*,*,#182,.F.);
#236=ORIENTED_EDGE('',*,*,#188,.F.);
#237=ORIENTED_EDGE('',*,*,#170,.T.);
#238=ORIENTED_EDGE('',*,*,#189,.F.);
#239=ORIENTED_EDGE('',*,*,#190,.F.);
#240=ORIENTED_EDGE('',*,*,#191,.T.);
#241=ORIENTED_EDGE('',*,*,#184,.T.);
#242=ORIENTED_EDGE('',*,*,#192,.T.);
#243=ORIENTED_EDGE('',*,*,#178,.F.);
#244=ORIENTED_EDGE('',*,*,#193,.F.);
#245=ORIENTED_EDGE('',*,*,#190,.T.);
#246=ORIENTED_EDGE('',*,*,#194,.T.);
#247=ORIENTED_EDGE('',*,*,#176,.F.);
#248=ORIENTED_EDGE('',*,*,#192,.F.);
#249=ORIENTED_EDGE('',*,*,#189,.T.);
#250=ORIENTED_EDGE('',*,*,#183,.F.);
#251=ORIENTED_EDGE('',*,*,#179,.F.);
#252=ORIENTED_EDGE('',*,*,#187,.F.);
#253=ORIENTED_EDGE('',*,*,#169,.F.);
#254=ORIENTED_EDGE('',*,*,#164,.F.);
#255=ORIENTED_EDGE('',*,*,#173,.F.);
#256=ORIENTED_EDGE('',*,*,#177,.T.);
#257=ORIENTED_EDGE('',*,*,#174,.T.);
#258=ORIENTED_EDGE('',*,*,#166,.T.);
#259=ORIENTED_EDGE('',*,*,#171,.T.);
#260=ORIENTED_EDGE('',*,*,#188,.T.);
#261=ORIENTED_EDGE('',*,*,#181,.T.);
#262=ORIENTED_EDGE('',*,*,#185,.T.);
#263=ORIENTED_EDGE('',*,*,#191,.F.);
#264=ORIENTED_EDGE('',*,*,#193,.T.);
#265=ORIENTED_EDGE('',*,*,#195,.T.);
#266=ORIENTED_EDGE('',*,*,#196,.T.);
#267=ORIENTED_EDGE('',*,*,#197,.T.);
#268=ORIENTED_EDGE('',*,*,#172,.F.);
#269=ORIENTED_EDGE('',*,*,#197,.F.);
#270=ORIENTED_EDGE('',*,*,#198,.T.);
#271=ORIENTED_EDGE('',*,*,#199,.T.);
#272=ORIENTED_EDGE('',*,*,#195,.F.);
#273=ORIENTED_EDGE('',*,*,#196,.F.);
#274=ORIENTED_EDGE('',*,*,#199,.F.);
#275=ORIENTED_EDGE('',*,*,#198,.F.);
#276=ORIENTED_EDGE('',*,*,#200,.T.);
#277=ORIENTED_EDGE('',*,*,#186,.T.);
#278=ORIENTED_EDGE('',*,*,#200,.F.);
#279=ORIENTED_EDGE('',*,*,#201,.T.);
#280=ORIENTED_EDGE('',*,*,#202,.T.);
#281=ORIENTED_EDGE('',*,*,#203,.T.);
#282=ORIENTED_EDGE('',*,*,#194,.F.);
#283=ORIENTED_EDGE('',*,*,#203,.F.);
#284=ORIENTED_EDGE('',*,*,#204,.T.);
#285=ORIENTED_EDGE('',*,*,#205,.T.);
#286=ORIENTED_EDGE('',*,*,#201,.F.);
#287=ORIENTED_EDGE('',*,*,#202,.F.);
#288=ORIENTED_EDGE('',*,*,#205,.F.);
#289=ORIENTED_EDGE('',*,*,#204,.F.);
#290=ORIENTED_EDGE('',*,*,#206,.T.);
#291=ORIENTED_EDGE('',*,*,#168,.T.);
#292=ORIENTED_EDGE('',*,*,#206,.F.);
#293=PLANE('',#332);
#294=PLANE('',#334);
#295=PLANE('',#336);
#296=PLANE('',#343);
#297=PLANE('',#345);
#298=PLANE('',#349);
#299=PLANE('',#351);
#300=PLANE('',#352);
#301=ADVANCED_FACE('',(#44,#24),#293,.F.);
#302=ADVANCED_FACE('',(#45,#25),#294,.F.);
#303=ADVANCED_FACE('',(#46),#295,.F.);
#304=ADVANCED_FACE('',(#47),#19,.T.);
#305=ADVANCED_FACE('',(#48),#20,.T.);
#306=ADVANCED_FACE('',(#49,#26),#296,.F.);
#307=ADVANCED_FACE('',(#50),#297,.F.);
#308=ADVANCED_FACE('',(#51),#21,.F.);
#309=ADVANCED_FACE('',(#52,#27),#298,.F.);
#310=ADVANCED_FACE('',(#53),#299,.F.);
#311=ADVANCED_FACE('',(#54),#300,.T.);
#312=ADVANCED_FACE('',(#55),#15,.F.);
#313=ADVANCED_FACE('',(#56),#22,.F.);
#314=ADVANCED_FACE('',(#57),#16,.F.);
#315=ADVANCED_FACE('',(#58),#17,.F.);
#316=ADVANCED_FACE('',(#59),#23,.F.);
#317=ADVANCED_FACE('',(#60),#18,.F.);
#318=CLOSED_SHELL('',(#301,#302,#303,#304,#305,#306,#307,#308,#309,#310,
#311,#312,#313,#314,#315,#316,#317));
#319=DERIVED_UNIT_ELEMENT(#321,1.);
#320=DERIVED_UNIT_ELEMENT(#554,-3.);
#321=(
MASS_UNIT()
NAMED_UNIT(*)
SI_UNIT(.KILO.,.GRAM.)
);
#322=DERIVED_UNIT((#319,#320));
#323=MEASURE_REPRESENTATION_ITEM('density measure',
POSITIVE_RATIO_MEASURE(7850.),#322);
#324=PROPERTY_DEFINITION_REPRESENTATION(#329,#326);
#325=PROPERTY_DEFINITION_REPRESENTATION(#330,#327);
#326=REPRESENTATION('material name',(#328),#551);
#327=REPRESENTATION('density',(#323),#551);
#328=DESCRIPTIVE_REPRESENTATION_ITEM('Steel','Steel');
#329=PROPERTY_DEFINITION('material property','material name',#561);
#330=PROPERTY_DEFINITION('material property','density of part',#561);
#331=AXIS2_PLACEMENT_3D('placement',#460,#365,#366);
#332=AXIS2_PLACEMENT_3D('',#461,#367,#368);
#333=AXIS2_PLACEMENT_3D('',#471,#373,#374);
#334=AXIS2_PLACEMENT_3D('',#472,#375,#376);
#335=AXIS2_PLACEMENT_3D('',#479,#380,#381);
#336=AXIS2_PLACEMENT_3D('',#480,#382,#383);
#337=AXIS2_PLACEMENT_3D('',#486,#387,#388);
#338=AXIS2_PLACEMENT_3D('',#488,#389,#390);
#339=AXIS2_PLACEMENT_3D('',#490,#391,#392);
#340=AXIS2_PLACEMENT_3D('',#492,#394,#395);
#341=AXIS2_PLACEMENT_3D('',#495,#396,#397);
#342=AXIS2_PLACEMENT_3D('',#499,#399,#400);
#343=AXIS2_PLACEMENT_3D('',#501,#402,#403);
#344=AXIS2_PLACEMENT_3D('',#508,#407,#408);
#345=AXIS2_PLACEMENT_3D('',#509,#409,#410);
#346=AXIS2_PLACEMENT_3D('',#512,#413,#414);
#347=AXIS2_PLACEMENT_3D('',#514,#415,#416);
#348=AXIS2_PLACEMENT_3D('',#517,#418,#419);
#349=AXIS2_PLACEMENT_3D('',#518,#420,#421);
#350=AXIS2_PLACEMENT_3D('',#522,#424,#425);
#351=AXIS2_PLACEMENT_3D('',#523,#426,#427);
#352=AXIS2_PLACEMENT_3D('',#524,#428,#429);
#353=AXIS2_PLACEMENT_3D('',#525,#430,#431);
#354=AXIS2_PLACEMENT_3D('',#528,#432,#433);
#355=AXIS2_PLACEMENT_3D('',#529,#434,#435);
#356=AXIS2_PLACEMENT_3D('',#531,#437,#438);
#357=AXIS2_PLACEMENT_3D('',#533,#439,#440);
#358=AXIS2_PLACEMENT_3D('',#535,#442,#443);
#359=AXIS2_PLACEMENT_3D('',#537,#445,#446);
#360=AXIS2_PLACEMENT_3D('',#540,#447,#448);
#361=AXIS2_PLACEMENT_3D('',#541,#449,#450);
#362=AXIS2_PLACEMENT_3D('',#543,#452,#453);
#363=AXIS2_PLACEMENT_3D('',#545,#454,#455);
#364=AXIS2_PLACEMENT_3D('',#547,#457,#458);
#365=DIRECTION('axis',(0.,0.,1.));
#366=DIRECTION('refdir',(1.,0.,0.));
#367=DIRECTION('center_axis',(0.,1.,0.));
#368=DIRECTION('ref_axis',(0.,0.,1.));
#369=DIRECTION('',(0.,0.,-1.));
#370=DIRECTION('',(-1.,0.,0.));
#371=DIRECTION('',(0.,0.,-1.));
#372=DIRECTION('',(-1.,0.,0.));
#373=DIRECTION('center_axis',(0.,-1.,0.));
#374=DIRECTION('ref_axis',(0.,0.,-1.));
#375=DIRECTION('center_axis',(0.,0.,1.));
#376=DIRECTION('ref_axis',(1.,0.,0.));
#377=DIRECTION('',(0.,1.,0.));
#378=DIRECTION('',(-1.,0.,0.));
#379=DIRECTION('',(0.,1.,0.));
#380=DIRECTION('center_axis',(0.,0.,1.));
#381=DIRECTION('ref_axis',(1.,0.,0.));
#382=DIRECTION('center_axis',(0.,0.,-1.));
#383=DIRECTION('ref_axis',(-1.,0.,0.));
#384=DIRECTION('',(0.,-1.,0.));
#385=DIRECTION('',(0.,-1.,0.));
#386=DIRECTION('',(-1.,0.,0.));
#387=DIRECTION('center_axis',(1.,0.,0.));
#388=DIRECTION('ref_axis',(0.,0.,1.));
#389=DIRECTION('center_axis',(1.,0.,0.));
#390=DIRECTION('ref_axis',(0.,0.,-1.));
#391=DIRECTION('center_axis',(1.,0.,0.));
#392=DIRECTION('ref_axis',(0.,0.,-1.));
#393=DIRECTION('',(-1.,0.,0.));
#394=DIRECTION('center_axis',(1.,0.,0.));
#395=DIRECTION('ref_axis',(0.,0.,1.));
#396=DIRECTION('center_axis',(1.,0.,0.));
#397=DIRECTION('ref_axis',(0.,0.,-1.));
#398=DIRECTION('',(-1.,0.,0.));
#399=DIRECTION('center_axis',(1.,0.,0.));
#400=DIRECTION('ref_axis',(0.,0.,-1.));
#401=DIRECTION('',(-1.,0.,0.));
#402=DIRECTION('center_axis',(0.,0.,-1.));
#403=DIRECTION('ref_axis',(-1.,0.,0.));
#404=DIRECTION('',(0.,-1.,0.));
#405=DIRECTION('',(-1.,0.,0.));
#406=DIRECTION('',(0.,-1.,0.));
#407=DIRECTION('center_axis',(0.,0.,1.));
#408=DIRECTION('ref_axis',(1.,0.,0.));
#409=DIRECTION('center_axis',(0.,-1.,0.));
#410=DIRECTION('ref_axis',(0.,0.,-1.));
#411=DIRECTION('',(0.,0.,1.));
#412=DIRECTION('',(0.,0.,1.));
#413=DIRECTION('center_axis',(1.,0.,0.));
#414=DIRECTION('ref_axis',(0.,0.,1.));
#415=DIRECTION('center_axis',(1.,0.,0.));
#416=DIRECTION('ref_axis',(0.,0.,-1.));
#417=DIRECTION('',(-1.,0.,0.));
#418=DIRECTION('center_axis',(1.,0.,0.));
#419=DIRECTION('ref_axis',(0.,0.,-1.));
#420=DIRECTION('center_axis',(0.,-1.,0.));
#421=DIRECTION('ref_axis',(0.,0.,-1.));
#422=DIRECTION('',(0.,0.,1.));
#423=DIRECTION('',(0.,0.,1.));
#424=DIRECTION('center_axis',(0.,-1.,0.));
#425=DIRECTION('ref_axis',(0.,0.,-1.));
#426=DIRECTION('center_axis',(1.,0.,0.));
#427=DIRECTION('ref_axis',(0.,0.,-1.));
#428=DIRECTION('center_axis',(1.,0.,0.));
#429=DIRECTION('ref_axis',(0.,0.,-1.));
#430=DIRECTION('center_axis',(0.,0.,-1.));
#431=DIRECTION('ref_axis',(-1.,0.,0.));
#432=DIRECTION('center_axis',(0.,0.,1.));
#433=DIRECTION('ref_axis',(1.,0.,0.));
#434=DIRECTION('center_axis',(0.,0.,1.));
#435=DIRECTION('ref_axis',(1.,0.,0.));
#436=DIRECTION('',(0.707106781188352,-8.65956056237703E-17,-0.707106781184743));
#437=DIRECTION('center_axis',(0.,0.,-1.));
#438=DIRECTION('ref_axis',(1.,0.,0.));
#439=DIRECTION('center_axis',(0.,0.,1.));
#440=DIRECTION('ref_axis',(1.,0.,0.));
#441=DIRECTION('',(0.,0.,-1.));
#442=DIRECTION('center_axis',(0.,0.,1.));
#443=DIRECTION('ref_axis',(1.,0.,0.));
#444=DIRECTION('',(-0.707106781188352,-8.65956056237703E-17,0.707106781184743));
#445=DIRECTION('center_axis',(0.,1.,0.));
#446=DIRECTION('ref_axis',(0.,0.,1.));
#447=DIRECTION('center_axis',(0.,-1.,0.));
#448=DIRECTION('ref_axis',(0.,0.,-1.));
#449=DIRECTION('center_axis',(0.,-1.,0.));
#450=DIRECTION('ref_axis',(0.,0.,-1.));
#451=DIRECTION('',(-8.65956056237703E-17,0.707106781184743,-0.707106781188352));
#452=DIRECTION('center_axis',(0.,1.,0.));
#453=DIRECTION('ref_axis',(0.,0.,-1.));
#454=DIRECTION('center_axis',(0.,-1.,0.));
#455=DIRECTION('ref_axis',(0.,0.,-1.));
#456=DIRECTION('',(0.,1.,0.));
#457=DIRECTION('center_axis',(0.,-1.,0.));
#458=DIRECTION('ref_axis',(0.,0.,-1.));
#459=DIRECTION('',(-8.65956056237703E-17,-0.707106781184743,0.707106781188352));
#460=CARTESIAN_POINT('',(0.,0.,0.));
#461=CARTESIAN_POINT('Origin',(30.,0.,30.));
#462=CARTESIAN_POINT('',(0.,0.,30.));
#463=CARTESIAN_POINT('',(0.,0.,0.));
#464=CARTESIAN_POINT('',(0.,0.,30.));
#465=CARTESIAN_POINT('',(30.,0.,0.));
#466=CARTESIAN_POINT('',(30.,0.,0.));
#467=CARTESIAN_POINT('',(30.,0.,30.));
#468=CARTESIAN_POINT('',(30.,0.,30.));
#469=CARTESIAN_POINT('',(30.,0.,30.));
#470=CARTESIAN_POINT('',(15.,1.27647892256277E-12,19.0000000000013));
#471=CARTESIAN_POINT('Origin',(15.,0.,15.));
#472=CARTESIAN_POINT('Origin',(30.,0.,0.));
#473=CARTESIAN_POINT('',(0.,30.,0.));
#474=CARTESIAN_POINT('',(0.,0.,0.));
#475=CARTESIAN_POINT('',(30.,30.,0.));
#476=CARTESIAN_POINT('',(30.,30.,0.));
#477=CARTESIAN_POINT('',(30.,0.,0.));
#478=CARTESIAN_POINT('',(19.,15.,0.));
#479=CARTESIAN_POINT('Origin',(15.,15.,0.));
#480=CARTESIAN_POINT('Origin',(30.,2.,30.));
#481=CARTESIAN_POINT('',(0.,2.,30.));
#482=CARTESIAN_POINT('',(0.,2.,30.));
#483=CARTESIAN_POINT('',(30.,2.,30.));
#484=CARTESIAN_POINT('',(30.,2.,30.));
#485=CARTESIAN_POINT('',(30.,2.,30.));
#486=CARTESIAN_POINT('Origin',(30.,2.,27.));
#487=CARTESIAN_POINT('',(0.,5.,27.));
#488=CARTESIAN_POINT('Origin',(0.,2.,27.));
#489=CARTESIAN_POINT('',(30.,5.,27.));
#490=CARTESIAN_POINT('Origin',(30.,2.,27.));
#491=CARTESIAN_POINT('',(30.,5.,27.));
#492=CARTESIAN_POINT('Origin',(30.,27.,2.));
#493=CARTESIAN_POINT('',(0.,30.,2.));
#494=CARTESIAN_POINT('',(0.,27.,5.));
#495=CARTESIAN_POINT('Origin',(0.,27.,2.));
#496=CARTESIAN_POINT('',(30.,27.,5.));
#497=CARTESIAN_POINT('',(30.,27.,5.));
#498=CARTESIAN_POINT('',(30.,30.,2.));
#499=CARTESIAN_POINT('Origin',(30.,27.,2.));
#500=CARTESIAN_POINT('',(30.,30.,2.));
#501=CARTESIAN_POINT('Origin',(30.,27.,5.));
#502=CARTESIAN_POINT('',(0.,8.,5.));
#503=CARTESIAN_POINT('',(0.,27.,5.));
#504=CARTESIAN_POINT('',(30.,8.,5.));
#505=CARTESIAN_POINT('',(30.,8.,5.));
#506=CARTESIAN_POINT('',(30.,27.,5.));
#507=CARTESIAN_POINT('',(10.9999999999987,15.,4.99999999999872));
#508=CARTESIAN_POINT('Origin',(15.,15.,5.));
#509=CARTESIAN_POINT('Origin',(30.,30.,0.));
#510=CARTESIAN_POINT('',(0.,30.,0.));
#511=CARTESIAN_POINT('',(30.,30.,0.));
#512=CARTESIAN_POINT('Origin',(30.,8.,8.));
#513=CARTESIAN_POINT('',(0.,5.,8.));
#514=CARTESIAN_POINT('Origin',(0.,8.,8.));
#515=CARTESIAN_POINT('',(30.,5.,8.));
#516=CARTESIAN_POINT('',(30.,5.,8.));
#517=CARTESIAN_POINT('Origin',(30.,8.,8.));
#518=CARTESIAN_POINT('Origin',(30.,5.,8.));
#519=CARTESIAN_POINT('',(0.,5.,8.));
#520=CARTESIAN_POINT('',(30.,5.,8.));
#521=CARTESIAN_POINT('',(15.,5.,11.));
#522=CARTESIAN_POINT('Origin',(15.,5.,15.));
#523=CARTESIAN_POINT('Origin',(0.,2.,27.));
#524=CARTESIAN_POINT('Origin',(30.,2.,27.));
#525=CARTESIAN_POINT('Origin',(15.,15.,0.));
#526=CARTESIAN_POINT('',(18.5,15.,0.5));
#527=CARTESIAN_POINT('',(11.5,15.,0.5));
#528=CARTESIAN_POINT('Origin',(15.,15.,0.5));
#529=CARTESIAN_POINT('Origin',(15.,15.,0.5));
#530=CARTESIAN_POINT('',(19.,15.,0.));
#531=CARTESIAN_POINT('Origin',(15.,15.,5.));
#532=CARTESIAN_POINT('',(11.5,15.,4.5));
#533=CARTESIAN_POINT('Origin',(15.,15.,4.5));
#534=CARTESIAN_POINT('',(11.5,15.,5.));
#535=CARTESIAN_POINT('Origin',(15.,15.,4.5));
#536=CARTESIAN_POINT('',(11.5,15.,4.5));
#537=CARTESIAN_POINT('Origin',(15.,5.,15.));
#538=CARTESIAN_POINT('',(15.,4.5,11.5));
#539=CARTESIAN_POINT('',(15.,4.5,18.5));
#540=CARTESIAN_POINT('Origin',(15.,4.5,15.));
#541=CARTESIAN_POINT('Origin',(15.,4.5,15.));
#542=CARTESIAN_POINT('',(15.,5.,11.));
#543=CARTESIAN_POINT('Origin',(15.,0.,15.));
#544=CARTESIAN_POINT('',(15.,0.5,18.5));
#545=CARTESIAN_POINT('Origin',(15.,0.5,15.));
#546=CARTESIAN_POINT('',(15.,0.,18.5));
#547=CARTESIAN_POINT('Origin',(15.,0.5,15.));
#548=CARTESIAN_POINT('',(15.,0.5,18.5));
#549=UNCERTAINTY_MEASURE_WITH_UNIT(LENGTH_MEASURE(0.01),#553,
'DISTANCE_ACCURACY_VALUE',
'Maximum model space distance between geometric entities at asserted c
onnectivities');
#550=UNCERTAINTY_MEASURE_WITH_UNIT(LENGTH_MEASURE(0.01),#553,
'DISTANCE_ACCURACY_VALUE',
'Maximum model space distance between geometric entities at asserted c
onnectivities');
#551=(
GEOMETRIC_REPRESENTATION_CONTEXT(3)
GLOBAL_UNCERTAINTY_ASSIGNED_CONTEXT((#549))
GLOBAL_UNIT_ASSIGNED_CONTEXT((#553,#555,#556))
REPRESENTATION_CONTEXT('','3D')
);
#552=(
GEOMETRIC_REPRESENTATION_CONTEXT(3)
GLOBAL_UNCERTAINTY_ASSIGNED_CONTEXT((#550))
GLOBAL_UNIT_ASSIGNED_CONTEXT((#553,#555,#556))
REPRESENTATION_CONTEXT('','3D')
);
#553=(
LENGTH_UNIT()
NAMED_UNIT(*)
SI_UNIT(.MILLI.,.METRE.)
);
#554=(
LENGTH_UNIT()
NAMED_UNIT(*)
SI_UNIT($,.METRE.)
);
#555=(
NAMED_UNIT(*)
PLANE_ANGLE_UNIT()
SI_UNIT($,.RADIAN.)
);
#556=(
NAMED_UNIT(*)
SI_UNIT($,.STERADIAN.)
SOLID_ANGLE_UNIT()
);
#557=SHAPE_DEFINITION_REPRESENTATION(#558,#559);
#558=PRODUCT_DEFINITION_SHAPE('',$,#561);
#559=SHAPE_REPRESENTATION('',(#331),#551);
#560=PRODUCT_DEFINITION_CONTEXT('part definition',#565,'design');
#561=PRODUCT_DEFINITION('093WD30','093WD30 v2',#562,#560);
#562=PRODUCT_DEFINITION_FORMATION('',$,#567);
#563=PRODUCT_RELATED_PRODUCT_CATEGORY('093WD30 v2','093WD30 v2',(#567));
#564=APPLICATION_PROTOCOL_DEFINITION('international standard',
'automotive_design',2009,#565);
#565=APPLICATION_CONTEXT(
'Core Data for Automotive Mechanical Design Process');
#566=PRODUCT_CONTEXT('part definition',#565,'mechanical');
#567=PRODUCT('093WD30','093WD30 v2',$,(#566));
#568=PRESENTATION_STYLE_ASSIGNMENT((#570));
#569=PRESENTATION_STYLE_ASSIGNMENT((#571));
#570=SURFACE_STYLE_USAGE(.BOTH.,#572);
#571=SURFACE_STYLE_USAGE(.BOTH.,#573);
#572=SURFACE_SIDE_STYLE('',(#574));
#573=SURFACE_SIDE_STYLE('',(#575));
#574=SURFACE_STYLE_FILL_AREA(#576);
#575=SURFACE_STYLE_FILL_AREA(#577);
#576=FILL_AREA_STYLE('Steel - Satin',(#578));
#577=FILL_AREA_STYLE('Aluminum - MGS',(#579));
#578=FILL_AREA_STYLE_COLOUR('Steel - Satin',#580);
#579=FILL_AREA_STYLE_COLOUR('Aluminum - MGS',#581);
#580=COLOUR_RGB('Steel - Satin',0.627450980392157,0.627450980392157,0.627450980392157);
#581=COLOUR_RGB('Aluminum - MGS',1.,1.,1.);
ENDSEC;
END-ISO-10303-21;
