ISO-10303-21;
HEADER;
FILE_DESCRIPTION( ( 'STEP AP203' ), '1' );
FILE_NAME( 'p:/temp/worker_649/temp/exporttempdir_3312_699_8vMPM/format_0/092337.stp', '2020-09-21T15:02:30', ( 'License CC BY-ND 4.0' ), ( 'CADENAS' ), ' ', 'PARTsolutions', ' ' );
FILE_SCHEMA( ( 'CONFIG_CONTROL_DESIGN' ) );
ENDSEC;
DATA;
#1 = DESIGN_CONTEXT( '', #27, 'design' );
#2 = APPLICATION_PROTOCOL_DEFINITION( 'international standard', 'config_control_design', 1994, #27 );
#3 = PRODUCT_CATEGORY_RELATIONSHIP( 'NONE', 'NONE', #28, #29 );
#4 = DATE_AND_TIME( #30, #31 );
#5 = DATE_TIME_ROLE( 'creation_date' );
#6 = DATE_TIME_ROLE( 'classification_date' );
#7 = PERSON_AND_ORGANIZATION_ROLE( 'creator' );
#8 = PERSON_AND_ORGANIZATION_ROLE( 'design_supplier' );
#9 = PERSON_AND_ORGANIZATION_ROLE( 'classification_officer' );
#10 = PERSON_AND_ORGANIZATION_ROLE( 'design_owner' );
#11 = APPROVAL_PERSON_ORGANIZATION( #32, #33, #34 );
#12 = APPROVAL_DATE_TIME( #4, #33 );
#13 = CC_DESIGN_APPROVAL( #33, ( #35, #36, #37 ) );
#14 = CC_DESIGN_DATE_AND_TIME_ASSIGNMENT( #4, #5, ( #37 ) );
#15 = CC_DESIGN_DATE_AND_TIME_ASSIGNMENT( #4, #6, ( #35 ) );
#16 = CC_DESIGN_PERSON_AND_ORGANIZATION_ASSIGNMENT( #32, #10, ( #38 ) );
#17 = CC_DESIGN_PERSON_AND_ORGANIZATION_ASSIGNMENT( #32, #7, ( #37 ) );
#18 = CC_DESIGN_PERSON_AND_ORGANIZATION_ASSIGNMENT( #32, #7, ( #36 ) );
#19 = CC_DESIGN_PERSON_AND_ORGANIZATION_ASSIGNMENT( #32, #8, ( #36 ) );
#20 = CC_DESIGN_SECURITY_CLASSIFICATION( #35, ( #36 ) );
#21 = CC_DESIGN_PERSON_AND_ORGANIZATION_ASSIGNMENT( #32, #9, ( #35 ) );
#22 = SHAPE_DEFINITION_REPRESENTATION( #39, #40 );
#23 =  ( GEOMETRIC_REPRESENTATION_CONTEXT( 3 )GLOBAL_UNCERTAINTY_ASSIGNED_CONTEXT( ( #43 ) )GLOBAL_UNIT_ASSIGNED_CONTEXT( ( #45, #46, #47 ) )REPRESENTATION_CONTEXT( 'NONE', 'WORKSPACE' ) );
#27 = APPLICATION_CONTEXT( 'configuration controlled 3D designs of mechanical parts and assemblies' );
#28 = PRODUCT_CATEGORY( 'part', 'NONE' );
#29 = PRODUCT_RELATED_PRODUCT_CATEGORY( 'detail', ' ', ( #38 ) );
#30 = CALENDAR_DATE( 2020, 21, 8 );
#31 = LOCAL_TIME( 17, 2, 30.0000000000000, #49 );
#32 = PERSON_AND_ORGANIZATION( #50, #51 );
#33 = APPROVAL( #52, 'SOLID MODEL' );
#34 = APPROVAL_ROLE( 'APPROVED' );
#35 = SECURITY_CLASSIFICATION( '', '', #53 );
#36 = PRODUCT_DEFINITION_FORMATION_WITH_SPECIFIED_SOURCE( ' ', 'NONE', #38, .NOT_KNOWN. );
#37 = PRODUCT_DEFINITION( 'NONE', 'NONE', #36, #1 );
#38 = PRODUCT( '_092337', '_092337', 'PART-_092337-DESC', ( #54 ) );
#39 = PRODUCT_DEFINITION_SHAPE( 'NONE', 'NONE', #37 );
#40 = ADVANCED_BREP_SHAPE_REPRESENTATION( '_092337', ( #55, #56 ), #23 );
#43 = UNCERTAINTY_MEASURE_WITH_UNIT( LENGTH_MEASURE( 0.00100000000000000 ), #45, '', '' );
#45 =  ( CONVERSION_BASED_UNIT( 'MILLIMETRE', #59 )LENGTH_UNIT(  )NAMED_UNIT( #62 ) );
#46 =  ( NAMED_UNIT( #64 )PLANE_ANGLE_UNIT(  )SI_UNIT( $, .RADIAN. ) );
#47 =  ( NAMED_UNIT( #64 )SI_UNIT( $, .STERADIAN. )SOLID_ANGLE_UNIT(  ) );
#49 = COORDINATED_UNIVERSAL_TIME_OFFSET( 1, 0, .AHEAD. );
#50 = PERSON( '', 'UNSPECIFIED', $, $, $, $ );
#51 = ORGANIZATION( 'UNSPECIFIED', 'UNSPECIFIED', 'UNSPECIFIED' );
#52 = APPROVAL_STATUS( 'approved' );
#53 = SECURITY_CLASSIFICATION_LEVEL( 'unclassified' );
#54 = MECHANICAL_CONTEXT( '', #27, 'mechanical' );
#55 = MANIFOLD_SOLID_BREP( '_092337', #70 );
#56 = AXIS2_PLACEMENT_3D( '', #71, #72, #73 );
#59 = LENGTH_MEASURE_WITH_UNIT( LENGTH_MEASURE( 1.00000000000000 ), #74 );
#62 = DIMENSIONAL_EXPONENTS( 1.00000000000000, 0.000000000000000, 0.000000000000000, 0.000000000000000, 0.000000000000000, 0.000000000000000, 0.000000000000000 );
#64 = DIMENSIONAL_EXPONENTS( 0.000000000000000, 0.000000000000000, 0.000000000000000, 0.000000000000000, 0.000000000000000, 0.000000000000000, 0.000000000000000 );
#70 = CLOSED_SHELL( '', ( #75, #76, #77, #78, #79, #80, #81, #82, #83, #84, #85, #86, #87, #88, #89 ) );
#71 = CARTESIAN_POINT( '', ( 0.000000000000000, 0.000000000000000, 0.000000000000000 ) );
#72 = DIRECTION( '', ( 0.000000000000000, 0.000000000000000, 1.00000000000000 ) );
#73 = DIRECTION( '', ( 1.00000000000000, 0.000000000000000, 0.000000000000000 ) );
#74 =  ( LENGTH_UNIT(  )NAMED_UNIT( #62 )SI_UNIT( .MILLI., .METRE. ) );
#75 = ADVANCED_FACE( '', ( #91, #92 ), #93, .F. );
#76 = ADVANCED_FACE( '', ( #94, #95 ), #96, .F. );
#77 = ADVANCED_FACE( '', ( #97, #98 ), #99, .F. );
#78 = ADVANCED_FACE( '', ( #100, #101 ), #102, .T. );
#79 = ADVANCED_FACE( '', ( #103, #104 ), #105, .T. );
#80 = ADVANCED_FACE( '', ( #106, #107 ), #108, .T. );
#81 = ADVANCED_FACE( '', ( #109, #110 ), #111, .T. );
#82 = ADVANCED_FACE( '', ( #112, #113 ), #114, .T. );
#83 = ADVANCED_FACE( '', ( #115, #116 ), #117, .T. );
#84 = ADVANCED_FACE( '', ( #118, #119 ), #120, .T. );
#85 = ADVANCED_FACE( '', ( #121, #122 ), #123, .T. );
#86 = ADVANCED_FACE( '', ( #124, #125 ), #126, .T. );
#87 = ADVANCED_FACE( '', ( #127, #128 ), #129, .T. );
#88 = ADVANCED_FACE( '', ( #130, #131 ), #132, .T. );
#89 = ADVANCED_FACE( '', ( #133, #134 ), #135, .F. );
#91 = FACE_OUTER_BOUND( '', #136, .T. );
#92 = FACE_BOUND( '', #137, .T. );
#93 = CONICAL_SURFACE( '', #138, 866.025403784400, 1.04719755120000 );
#94 = FACE_OUTER_BOUND( '', #139, .T. );
#95 = FACE_OUTER_BOUND( '', #140, .T. );
#96 = CYLINDRICAL_SURFACE( '', #141, 3.32350000000000 );
#97 = FACE_OUTER_BOUND( '', #142, .T. );
#98 = FACE_OUTER_BOUND( '', #143, .T. );
#99 = CYLINDRICAL_SURFACE( '', #144, 3.32350000000000 );
#100 = FACE_OUTER_BOUND( '', #145, .T. );
#101 = FACE_OUTER_BOUND( '', #146, .T. );
#102 = CYLINDRICAL_SURFACE( '', #147, 10.0000000000000 );
#103 = FACE_BOUND( '', #148, .T. );
#104 = FACE_OUTER_BOUND( '', #149, .T. );
#105 = PLANE( '', #150 );
#106 = FACE_BOUND( '', #151, .T. );
#107 = FACE_OUTER_BOUND( '', #152, .T. );
#108 = PLANE( '', #153 );
#109 = FACE_OUTER_BOUND( '', #154, .T. );
#110 = FACE_OUTER_BOUND( '', #155, .T. );
#111 = CYLINDRICAL_SURFACE( '', #156, 10.0000000000000 );
#112 = FACE_OUTER_BOUND( '', #157, .T. );
#113 = FACE_OUTER_BOUND( '', #158, .T. );
#114 = TOROIDAL_SURFACE( '', #159, 32.0000000000000, 10.0000000000000 );
#115 = FACE_OUTER_BOUND( '', #160, .T. );
#116 = FACE_OUTER_BOUND( '', #161, .T. );
#117 = CYLINDRICAL_SURFACE( '', #162, 10.0000000000000 );
#118 = FACE_OUTER_BOUND( '', #163, .T. );
#119 = FACE_OUTER_BOUND( '', #164, .T. );
#120 = TOROIDAL_SURFACE( '', #165, 32.0000000000000, 10.0000000000000 );
#121 = FACE_OUTER_BOUND( '', #166, .T. );
#122 = FACE_OUTER_BOUND( '', #167, .T. );
#123 = CYLINDRICAL_SURFACE( '', #168, 10.0000000000000 );
#124 = FACE_OUTER_BOUND( '', #169, .T. );
#125 = FACE_OUTER_BOUND( '', #170, .T. );
#126 = TOROIDAL_SURFACE( '', #171, 32.0000000000000, 10.0000000000000 );
#127 = FACE_OUTER_BOUND( '', #172, .T. );
#128 = FACE_OUTER_BOUND( '', #173, .T. );
#129 = CYLINDRICAL_SURFACE( '', #174, 10.0000000000000 );
#130 = FACE_OUTER_BOUND( '', #175, .T. );
#131 = FACE_OUTER_BOUND( '', #176, .T. );
#132 = TOROIDAL_SURFACE( '', #177, 32.0000000000000, 10.0000000000000 );
#133 = FACE_OUTER_BOUND( '', #178, .T. );
#134 = FACE_BOUND( '', #179, .T. );
#135 = CONICAL_SURFACE( '', #180, 866.025403784400, 1.04719755120000 );
#136 = EDGE_LOOP( '', ( #181 ) );
#137 = VERTEX_LOOP( '', #182 );
#138 = AXIS2_PLACEMENT_3D( '', #183, #184, #185 );
#139 = EDGE_LOOP( '', ( #186 ) );
#140 = EDGE_LOOP( '', ( #187 ) );
#141 = AXIS2_PLACEMENT_3D( '', #188, #189, #190 );
#142 = EDGE_LOOP( '', ( #191 ) );
#143 = EDGE_LOOP( '', ( #192 ) );
#144 = AXIS2_PLACEMENT_3D( '', #193, #194, #195 );
#145 = EDGE_LOOP( '', ( #196 ) );
#146 = EDGE_LOOP( '', ( #197 ) );
#147 = AXIS2_PLACEMENT_3D( '', #198, #199, #200 );
#148 = EDGE_LOOP( '', ( #201 ) );
#149 = EDGE_LOOP( '', ( #202 ) );
#150 = AXIS2_PLACEMENT_3D( '', #203, #204, #205 );
#151 = EDGE_LOOP( '', ( #206 ) );
#152 = EDGE_LOOP( '', ( #207 ) );
#153 = AXIS2_PLACEMENT_3D( '', #208, #209, #210 );
#154 = EDGE_LOOP( '', ( #211 ) );
#155 = EDGE_LOOP( '', ( #212 ) );
#156 = AXIS2_PLACEMENT_3D( '', #213, #214, #215 );
#157 = EDGE_LOOP( '', ( #216 ) );
#158 = EDGE_LOOP( '', ( #217 ) );
#159 = AXIS2_PLACEMENT_3D( '', #218, #219, #220 );
#160 = EDGE_LOOP( '', ( #221 ) );
#161 = EDGE_LOOP( '', ( #222 ) );
#162 = AXIS2_PLACEMENT_3D( '', #223, #224, #225 );
#163 = EDGE_LOOP( '', ( #226 ) );
#164 = EDGE_LOOP( '', ( #227 ) );
#165 = AXIS2_PLACEMENT_3D( '', #228, #229, #230 );
#166 = EDGE_LOOP( '', ( #231 ) );
#167 = EDGE_LOOP( '', ( #232 ) );
#168 = AXIS2_PLACEMENT_3D( '', #233, #234, #235 );
#169 = EDGE_LOOP( '', ( #236 ) );
#170 = EDGE_LOOP( '', ( #237 ) );
#171 = AXIS2_PLACEMENT_3D( '', #238, #239, #240 );
#172 = EDGE_LOOP( '', ( #241 ) );
#173 = EDGE_LOOP( '', ( #242 ) );
#174 = AXIS2_PLACEMENT_3D( '', #243, #244, #245 );
#175 = EDGE_LOOP( '', ( #246 ) );
#176 = EDGE_LOOP( '', ( #247 ) );
#177 = AXIS2_PLACEMENT_3D( '', #248, #249, #250 );
#178 = EDGE_LOOP( '', ( #251 ) );
#179 = VERTEX_LOOP( '', #252 );
#180 = AXIS2_PLACEMENT_3D( '', #253, #254, #255 );
#181 = ORIENTED_EDGE( '', *, *, #256, .T. );
#182 = VERTEX_POINT( '', #257 );
#183 = CARTESIAN_POINT( '', ( 200.000000000000, 0.000000000000000, 492.714976380352 ) );
#184 = DIRECTION( '', ( -0.000000000000000, -0.000000000000000, 1.00000000000000 ) );
#185 = DIRECTION( '', ( 1.00000000000000, 0.000000000000000, 0.000000000000000 ) );
#186 = ORIENTED_EDGE( '', *, *, #258, .T. );
#187 = ORIENTED_EDGE( '', *, *, #256, .F. );
#188 = CARTESIAN_POINT( '', ( 200.000000000000, 0.000000000000000, 16.8838000000000 ) );
#189 = DIRECTION( '', ( -0.000000000000000, 0.000000000000000, -1.00000000000000 ) );
#190 = DIRECTION( '', ( 1.00000000000000, 0.000000000000000, 0.000000000000000 ) );
#191 = ORIENTED_EDGE( '', *, *, #259, .T. );
#192 = ORIENTED_EDGE( '', *, *, #260, .F. );
#193 = CARTESIAN_POINT( '', ( 0.000000000000000, 0.000000000000000, 16.8838000000000 ) );
#194 = DIRECTION( '', ( 3.67489305097144E-17, 0.000000000000000, -1.00000000000000 ) );
#195 = DIRECTION( '', ( 1.00000000000000, 0.000000000000000, 3.67489305097144E-17 ) );
#196 = ORIENTED_EDGE( '', *, *, #261, .F. );
#197 = ORIENTED_EDGE( '', *, *, #262, .T. );
#198 = CARTESIAN_POINT( '', ( 0.000000000000000, 0.000000000000000, 16.8838000000000 ) );
#199 = DIRECTION( '', ( 0.000000000000000, -0.000000000000000, 1.00000000000000 ) );
#200 = DIRECTION( '', ( -1.00000000000000, 0.000000000000000, 0.000000000000000 ) );
#201 = ORIENTED_EDGE( '', *, *, #259, .F. );
#202 = ORIENTED_EDGE( '', *, *, #261, .T. );
#203 = CARTESIAN_POINT( '', ( 0.000000000000000, 0.000000000000000, 16.8838000000000 ) );
#204 = DIRECTION( '', ( 0.000000000000000, 0.000000000000000, 1.00000000000000 ) );
#205 = DIRECTION( '', ( 1.00000000000000, 0.000000000000000, -0.000000000000000 ) );
#206 = ORIENTED_EDGE( '', *, *, #258, .F. );
#207 = ORIENTED_EDGE( '', *, *, #263, .T. );
#208 = CARTESIAN_POINT( '', ( 200.000000000000, 0.000000000000000, 16.8838000000000 ) );
#209 = DIRECTION( '', ( 0.000000000000000, 0.000000000000000, 1.00000000000000 ) );
#210 = DIRECTION( '', ( 1.00000000000000, 0.000000000000000, -0.000000000000000 ) );
#211 = ORIENTED_EDGE( '', *, *, #263, .F. );
#212 = ORIENTED_EDGE( '', *, *, #264, .T. );
#213 = CARTESIAN_POINT( '', ( 200.000000000000, 0.000000000000000, 16.8838000000000 ) );
#214 = DIRECTION( '', ( 0.000000000000000, -0.000000000000000, 1.00000000000000 ) );
#215 = DIRECTION( '', ( -1.00000000000000, 0.000000000000000, 0.000000000000000 ) );
#216 = ORIENTED_EDGE( '', *, *, #265, .T. );
#217 = ORIENTED_EDGE( '', *, *, #264, .F. );
#218 = CARTESIAN_POINT( '', ( 200.000000000000, 32.0000000000000, 0.000000000000000 ) );
#219 = DIRECTION( '', ( -1.00000000000000, 0.000000000000000, 0.000000000000000 ) );
#220 = DIRECTION( '', ( 0.000000000000000, 0.000000000000000, 1.00000000000000 ) );
#221 = ORIENTED_EDGE( '', *, *, #265, .F. );
#222 = ORIENTED_EDGE( '', *, *, #266, .T. );
#223 = CARTESIAN_POINT( '', ( 200.000000000000, 16.0000000000000, -27.7128129211021 ) );
#224 = DIRECTION( '', ( 0.000000000000000, -0.866025403784439, 0.499999999999999 ) );
#225 = DIRECTION( '', ( 0.000000000000000, 0.499999999999999, 0.866025403784439 ) );
#226 = ORIENTED_EDGE( '', *, *, #267, .T. );
#227 = ORIENTED_EDGE( '', *, *, #266, .F. );
#228 = CARTESIAN_POINT( '', ( 168.000000000000, 32.2871665638932, -37.1162129211020 ) );
#229 = DIRECTION( '', ( 0.000000000000000, -0.499999999999999, -0.866025403784439 ) );
#230 = DIRECTION( '', ( 0.000000000000000, 0.866025403784439, -0.499999999999999 ) );
#231 = ORIENTED_EDGE( '', *, *, #267, .F. );
#232 = ORIENTED_EDGE( '', *, *, #268, .T. );
#233 = CARTESIAN_POINT( '', ( 168.000000000000, 59.9999794849952, -53.1162129211020 ) );
#234 = DIRECTION( '', ( 1.00000000000000, -0.000000000000000, -0.000000000000000 ) );
#235 = DIRECTION( '', ( 0.000000000000000, 0.000000000000000, 1.00000000000000 ) );
#236 = ORIENTED_EDGE( '', *, *, #269, .T. );
#237 = ORIENTED_EDGE( '', *, *, #268, .F. );
#238 = CARTESIAN_POINT( '', ( 32.0000000000000, 32.2871665638932, -37.1162129211020 ) );
#239 = DIRECTION( '', ( 0.000000000000000, -0.500000000000000, -0.866025403784439 ) );
#240 = DIRECTION( '', ( 0.000000000000000, 0.866025403784439, -0.500000000000000 ) );
#241 = ORIENTED_EDGE( '', *, *, #269, .F. );
#242 = ORIENTED_EDGE( '', *, *, #270, .T. );
#243 = CARTESIAN_POINT( '', ( 0.000000000000000, 32.2871665638932, -37.1162129211020 ) );
#244 = DIRECTION( '', ( -0.000000000000000, 0.866025403784439, -0.500000000000000 ) );
#245 = DIRECTION( '', ( 0.000000000000000, -0.500000000000000, -0.866025403784439 ) );
#246 = ORIENTED_EDGE( '', *, *, #270, .F. );
#247 = ORIENTED_EDGE( '', *, *, #262, .F. );
#248 = CARTESIAN_POINT( '', ( 0.000000000000000, 32.0000000000000, 0.000000000000000 ) );
#249 = DIRECTION( '', ( -1.00000000000000, 0.000000000000000, 0.000000000000000 ) );
#250 = DIRECTION( '', ( 0.000000000000000, 0.000000000000000, 1.00000000000000 ) );
#251 = ORIENTED_EDGE( '', *, *, #260, .T. );
#252 = VERTEX_POINT( '', #271 );
#253 = CARTESIAN_POINT( '', ( -1.74862868351571E-14, 0.000000000000000, 492.714976380349 ) );
#254 = DIRECTION( '', ( -3.67489305097144E-17, -0.000000000000000, 1.00000000000000 ) );
#255 = DIRECTION( '', ( 1.00000000000000, 0.000000000000000, 3.67489305097144E-17 ) );
#256 = EDGE_CURVE( '', #272, #272, #273, .T. );
#257 = CARTESIAN_POINT( '', ( 200.000000000000, 0.000000000000000, -7.28502361965172 ) );
#258 = EDGE_CURVE( '', #274, #274, #275, .T. );
#259 = EDGE_CURVE( '', #276, #276, #277, .T. );
#260 = EDGE_CURVE( '', #278, #278, #279, .T. );
#261 = EDGE_CURVE( '', #280, #280, #281, .T. );
#262 = EDGE_CURVE( '', #282, #282, #283, .T. );
#263 = EDGE_CURVE( '', #284, #284, #285, .T. );
#264 = EDGE_CURVE( '', #286, #286, #287, .T. );
#265 = EDGE_CURVE( '', #288, #288, #289, .T. );
#266 = EDGE_CURVE( '', #290, #290, #291, .T. );
#267 = EDGE_CURVE( '', #292, #292, #293, .T. );
#268 = EDGE_CURVE( '', #294, #294, #295, .T. );
#269 = EDGE_CURVE( '', #296, #296, #297, .T. );
#270 = EDGE_CURVE( '', #298, #298, #299, .T. );
#271 = CARTESIAN_POINT( '', ( 8.88178419700125E-16, 0.000000000000000, -7.28502361965172 ) );
#272 = VERTEX_POINT( '', #300 );
#273 = CIRCLE( '', #301, 3.32350000000000 );
#274 = VERTEX_POINT( '', #302 );
#275 = CIRCLE( '', #303, 3.32350000000000 );
#276 = VERTEX_POINT( '', #304 );
#277 = CIRCLE( '', #305, 3.32350000000000 );
#278 = VERTEX_POINT( '', #306 );
#279 = CIRCLE( '', #307, 3.32350000000000 );
#280 = VERTEX_POINT( '', #308 );
#281 = CIRCLE( '', #309, 10.0000000000000 );
#282 = VERTEX_POINT( '', #310 );
#283 = CIRCLE( '', #311, 10.0000000000000 );
#284 = VERTEX_POINT( '', #312 );
#285 = CIRCLE( '', #313, 10.0000000000000 );
#286 = VERTEX_POINT( '', #314 );
#287 = CIRCLE( '', #315, 10.0000000000000 );
#288 = VERTEX_POINT( '', #316 );
#289 = CIRCLE( '', #317, 10.0000000000000 );
#290 = VERTEX_POINT( '', #318 );
#291 = CIRCLE( '', #319, 10.0000000000000 );
#292 = VERTEX_POINT( '', #320 );
#293 = CIRCLE( '', #321, 10.0000000000000 );
#294 = VERTEX_POINT( '', #322 );
#295 = CIRCLE( '', #323, 10.0000000000000 );
#296 = VERTEX_POINT( '', #324 );
#297 = CIRCLE( '', #325, 10.0000000000000 );
#298 = VERTEX_POINT( '', #326 );
#299 = CIRCLE( '', #327, 10.0000000000000 );
#300 = CARTESIAN_POINT( '', ( 203.323500000000, 0.000000000000000, -5.36619999999999 ) );
#301 = AXIS2_PLACEMENT_3D( '', #328, #329, #330 );
#302 = CARTESIAN_POINT( '', ( 203.323500000000, 0.000000000000000, 16.8838000000000 ) );
#303 = AXIS2_PLACEMENT_3D( '', #331, #332, #333 );
#304 = CARTESIAN_POINT( '', ( 3.32350000000000, 0.000000000000000, 16.8838000000000 ) );
#305 = AXIS2_PLACEMENT_3D( '', #334, #335, #336 );
#306 = CARTESIAN_POINT( '', ( 3.32350000000000, 0.000000000000000, -5.36619999999999 ) );
#307 = AXIS2_PLACEMENT_3D( '', #337, #338, #339 );
#308 = CARTESIAN_POINT( '', ( 10.0000000000000, 0.000000000000000, 16.8838000000000 ) );
#309 = AXIS2_PLACEMENT_3D( '', #340, #341, #342 );
#310 = CARTESIAN_POINT( '', ( 10.0000000000000, 0.000000000000000, 0.000000000000000 ) );
#311 = AXIS2_PLACEMENT_3D( '', #343, #344, #345 );
#312 = CARTESIAN_POINT( '', ( 210.000000000000, 0.000000000000000, 16.8838000000000 ) );
#313 = AXIS2_PLACEMENT_3D( '', #346, #347, #348 );
#314 = CARTESIAN_POINT( '', ( 210.000000000000, 0.000000000000000, 0.000000000000000 ) );
#315 = AXIS2_PLACEMENT_3D( '', #349, #350, #351 );
#316 = CARTESIAN_POINT( '', ( 210.000000000000, 16.0000000000000, -27.7128129211021 ) );
#317 = AXIS2_PLACEMENT_3D( '', #352, #353, #354 );
#318 = CARTESIAN_POINT( '', ( 210.000000000000, 32.2871665638932, -37.1162129211021 ) );
#319 = AXIS2_PLACEMENT_3D( '', #355, #356, #357 );
#320 = CARTESIAN_POINT( '', ( 168.000000000000, 68.6602335228396, -58.1162129211020 ) );
#321 = AXIS2_PLACEMENT_3D( '', #358, #359, #360 );
#322 = CARTESIAN_POINT( '', ( 32.0000000000000, 68.6602335228396, -58.1162129211020 ) );
#323 = AXIS2_PLACEMENT_3D( '', #361, #362, #363 );
#324 = CARTESIAN_POINT( '', ( -10.0000000000000, 32.2871665638932, -37.1162129211020 ) );
#325 = AXIS2_PLACEMENT_3D( '', #364, #365, #366 );
#326 = CARTESIAN_POINT( '', ( -10.0000000000000, 16.0000000000000, -27.7128129211020 ) );
#327 = AXIS2_PLACEMENT_3D( '', #367, #368, #369 );
#328 = CARTESIAN_POINT( '', ( 200.000000000000, 0.000000000000000, -5.36619999999999 ) );
#329 = DIRECTION( '', ( 0.000000000000000, -0.000000000000000, 1.00000000000000 ) );
#330 = DIRECTION( '', ( 1.00000000000000, 0.000000000000000, 0.000000000000000 ) );
#331 = CARTESIAN_POINT( '', ( 200.000000000000, 0.000000000000000, 16.8838000000000 ) );
#332 = DIRECTION( '', ( 0.000000000000000, -0.000000000000000, 1.00000000000000 ) );
#333 = DIRECTION( '', ( 1.00000000000000, 0.000000000000000, 0.000000000000000 ) );
#334 = CARTESIAN_POINT( '', ( 4.48833322040559E-33, 0.000000000000000, 16.8838000000000 ) );
#335 = DIRECTION( '', ( -3.67489305097144E-17, -0.000000000000000, 1.00000000000000 ) );
#336 = DIRECTION( '', ( 1.00000000000000, 0.000000000000000, 3.67489305097144E-17 ) );
#337 = CARTESIAN_POINT( '', ( 8.17663703841145E-16, 0.000000000000000, -5.36619999999999 ) );
#338 = DIRECTION( '', ( -3.67489305097144E-17, -0.000000000000000, 1.00000000000000 ) );
#339 = DIRECTION( '', ( 1.00000000000000, 0.000000000000000, 3.67489305097144E-17 ) );
#340 = CARTESIAN_POINT( '', ( 0.000000000000000, 0.000000000000000, 16.8838000000000 ) );
#341 = DIRECTION( '', ( 0.000000000000000, 0.000000000000000, 1.00000000000000 ) );
#342 = DIRECTION( '', ( 1.00000000000000, 0.000000000000000, 0.000000000000000 ) );
#343 = CARTESIAN_POINT( '', ( 0.000000000000000, 0.000000000000000, 0.000000000000000 ) );
#344 = DIRECTION( '', ( 0.000000000000000, 0.000000000000000, 1.00000000000000 ) );
#345 = DIRECTION( '', ( 1.00000000000000, 0.000000000000000, 0.000000000000000 ) );
#346 = CARTESIAN_POINT( '', ( 200.000000000000, 0.000000000000000, 16.8838000000000 ) );
#347 = DIRECTION( '', ( 0.000000000000000, 0.000000000000000, 1.00000000000000 ) );
#348 = DIRECTION( '', ( 1.00000000000000, 0.000000000000000, 0.000000000000000 ) );
#349 = CARTESIAN_POINT( '', ( 200.000000000000, 0.000000000000000, 0.000000000000000 ) );
#350 = DIRECTION( '', ( 0.000000000000000, 0.000000000000000, 1.00000000000000 ) );
#351 = DIRECTION( '', ( 1.00000000000000, 0.000000000000000, 0.000000000000000 ) );
#352 = CARTESIAN_POINT( '', ( 200.000000000000, 16.0000000000000, -27.7128129211021 ) );
#353 = DIRECTION( '', ( 0.000000000000000, -0.866025403784439, 0.499999999999999 ) );
#354 = DIRECTION( '', ( 1.00000000000000, 0.000000000000000, 0.000000000000000 ) );
#355 = CARTESIAN_POINT( '', ( 200.000000000000, 32.2871665638932, -37.1162129211021 ) );
#356 = DIRECTION( '', ( 6.12323399573677E-17, -0.866025403784439, 0.499999999999999 ) );
#357 = DIRECTION( '', ( 1.00000000000000, -2.60212327070453E-17, -1.67534777038911E-16 ) );
#358 = CARTESIAN_POINT( '', ( 168.000000000000, 59.9999794849952, -53.1162129211020 ) );
#359 = DIRECTION( '', ( 1.00000000000000, 0.000000000000000, 0.000000000000000 ) );
#360 = DIRECTION( '', ( 0.000000000000000, 0.866025403784439, -0.499999999999999 ) );
#361 = CARTESIAN_POINT( '', ( 32.0000000000000, 59.9999794849952, -53.1162129211020 ) );
#362 = DIRECTION( '', ( 1.00000000000000, 1.38777878078145E-16, 5.55111512312578E-17 ) );
#363 = DIRECTION( '', ( -9.24295922833438E-17, 0.866025403784439, -0.500000000000000 ) );
#364 = CARTESIAN_POINT( '', ( 0.000000000000000, 32.2871665638932, -37.1162129211020 ) );
#365 = DIRECTION( '', ( 0.000000000000000, 0.866025403784439, -0.500000000000000 ) );
#366 = DIRECTION( '', ( -1.00000000000000, 0.000000000000000, 0.000000000000000 ) );
#367 = CARTESIAN_POINT( '', ( 0.000000000000000, 16.0000000000000, -27.7128129211020 ) );
#368 = DIRECTION( '', ( 0.000000000000000, 0.866025403784439, -0.500000000000000 ) );
#369 = DIRECTION( '', ( -1.00000000000000, 0.000000000000000, 0.000000000000000 ) );
ENDSEC;
END-ISO-10303-21;
