ISO-10303-21;
HEADER;
/* Generated by software containing ST-Developer
 * from STEP Tools, Inc. (www.steptools.com) 
 */

FILE_DESCRIPTION(
/* description */ (''),
/* implementation_level */ '2;1');

FILE_NAME(
/* name */ 
'Z:/Modular Solution/Z-Ethan/30x30 Aluminum End Cap/Aluminum 30x30 End
cap.step',
/* time_stamp */ '2021-02-02T15:56:39-05:00',
/* author */ (''),
/* organization */ (''),
/* preprocessor_version */ 'ST-DEVELOPER v18.1',
/* originating_system */ 'Autodesk Translation Framework v9.7.1.1290',
/* authorisation */ '');

FILE_SCHEMA (('AUTOMOTIVE_DESIGN { 1 0 10303 214 3 1 1 }'));
ENDSEC;

DATA;
#10=MECHANICAL_DESIGN_GEOMETRIC_PRESENTATION_REPRESENTATION('',(#13),#407);
#11=SHAPE_REPRESENTATION_RELATIONSHIP('SRR','None',#414,#12);
#12=ADVANCED_BREP_SHAPE_REPRESENTATION('',(#14),#406);
#13=STYLED_ITEM('',(#424),#14);
#14=MANIFOLD_SOLID_BREP('Body1',#231);
#15=FACE_BOUND('',#40,.T.);
#16=FACE_BOUND('',#51,.T.);
#17=FACE_BOUND('',#53,.T.);
#18=PLANE('',#248);
#19=PLANE('',#256);
#20=PLANE('',#259);
#21=PLANE('',#262);
#22=PLANE('',#265);
#23=PLANE('',#268);
#24=PLANE('',#269);
#25=FACE_OUTER_BOUND('',#38,.T.);
#26=FACE_OUTER_BOUND('',#39,.T.);
#27=FACE_OUTER_BOUND('',#41,.T.);
#28=FACE_OUTER_BOUND('',#42,.T.);
#29=FACE_OUTER_BOUND('',#43,.T.);
#30=FACE_OUTER_BOUND('',#44,.T.);
#31=FACE_OUTER_BOUND('',#45,.T.);
#32=FACE_OUTER_BOUND('',#46,.T.);
#33=FACE_OUTER_BOUND('',#47,.T.);
#34=FACE_OUTER_BOUND('',#48,.T.);
#35=FACE_OUTER_BOUND('',#49,.T.);
#36=FACE_OUTER_BOUND('',#50,.T.);
#37=FACE_OUTER_BOUND('',#52,.T.);
#38=EDGE_LOOP('',(#152,#153,#154,#155));
#39=EDGE_LOOP('',(#156,#157,#158,#159,#160,#161,#162,#163));
#40=EDGE_LOOP('',(#164));
#41=EDGE_LOOP('',(#165,#166,#167,#168));
#42=EDGE_LOOP('',(#169,#170,#171,#172));
#43=EDGE_LOOP('',(#173,#174,#175,#176));
#44=EDGE_LOOP('',(#177,#178,#179,#180));
#45=EDGE_LOOP('',(#181,#182,#183,#184));
#46=EDGE_LOOP('',(#185,#186,#187,#188));
#47=EDGE_LOOP('',(#189,#190,#191,#192));
#48=EDGE_LOOP('',(#193,#194,#195,#196));
#49=EDGE_LOOP('',(#197,#198,#199,#200));
#50=EDGE_LOOP('',(#201));
#51=EDGE_LOOP('',(#202));
#52=EDGE_LOOP('',(#203,#204,#205,#206,#207,#208,#209,#210));
#53=EDGE_LOOP('',(#211));
#54=LINE('',#345,#72);
#55=LINE('',#352,#73);
#56=LINE('',#356,#74);
#57=LINE('',#360,#75);
#58=LINE('',#363,#76);
#59=LINE('',#368,#77);
#60=LINE('',#373,#78);
#61=LINE('',#374,#79);
#62=LINE('',#375,#80);
#63=LINE('',#379,#81);
#64=LINE('',#382,#82);
#65=LINE('',#383,#83);
#66=LINE('',#387,#84);
#67=LINE('',#390,#85);
#68=LINE('',#391,#86);
#69=LINE('',#395,#87);
#70=LINE('',#398,#88);
#71=LINE('',#399,#89);
#72=VECTOR('',#276,6.5);
#73=VECTOR('',#283,10.);
#74=VECTOR('',#286,10.);
#75=VECTOR('',#289,10.);
#76=VECTOR('',#292,10.);
#77=VECTOR('',#297,4.25);
#78=VECTOR('',#302,10.);
#79=VECTOR('',#303,10.);
#80=VECTOR('',#304,10.);
#81=VECTOR('',#309,10.);
#82=VECTOR('',#312,10.);
#83=VECTOR('',#313,10.);
#84=VECTOR('',#318,10.);
#85=VECTOR('',#321,10.);
#86=VECTOR('',#322,10.);
#87=VECTOR('',#327,10.);
#88=VECTOR('',#330,10.);
#89=VECTOR('',#331,10.);
#90=CIRCLE('',#246,6.5);
#91=CIRCLE('',#247,6.5);
#92=CIRCLE('',#249,2.5);
#93=CIRCLE('',#250,2.5);
#94=CIRCLE('',#251,2.5);
#95=CIRCLE('',#252,2.5);
#96=CIRCLE('',#254,4.25);
#97=CIRCLE('',#255,4.25);
#98=CIRCLE('',#258,2.5);
#99=CIRCLE('',#261,2.5);
#100=CIRCLE('',#264,2.5);
#101=CIRCLE('',#267,2.5);
#102=VERTEX_POINT('',#342);
#103=VERTEX_POINT('',#344);
#104=VERTEX_POINT('',#348);
#105=VERTEX_POINT('',#349);
#106=VERTEX_POINT('',#351);
#107=VERTEX_POINT('',#353);
#108=VERTEX_POINT('',#355);
#109=VERTEX_POINT('',#357);
#110=VERTEX_POINT('',#359);
#111=VERTEX_POINT('',#361);
#112=VERTEX_POINT('',#365);
#113=VERTEX_POINT('',#367);
#114=VERTEX_POINT('',#371);
#115=VERTEX_POINT('',#372);
#116=VERTEX_POINT('',#377);
#117=VERTEX_POINT('',#381);
#118=VERTEX_POINT('',#385);
#119=VERTEX_POINT('',#389);
#120=VERTEX_POINT('',#393);
#121=VERTEX_POINT('',#397);
#122=EDGE_CURVE('',#102,#102,#90,.T.);
#123=EDGE_CURVE('',#102,#103,#54,.T.);
#124=EDGE_CURVE('',#103,#103,#91,.T.);
#125=EDGE_CURVE('',#104,#105,#92,.T.);
#126=EDGE_CURVE('',#105,#106,#55,.T.);
#127=EDGE_CURVE('',#106,#107,#93,.T.);
#128=EDGE_CURVE('',#107,#108,#56,.T.);
#129=EDGE_CURVE('',#108,#109,#94,.T.);
#130=EDGE_CURVE('',#109,#110,#57,.T.);
#131=EDGE_CURVE('',#110,#111,#95,.T.);
#132=EDGE_CURVE('',#111,#104,#58,.T.);
#133=EDGE_CURVE('',#112,#112,#96,.T.);
#134=EDGE_CURVE('',#112,#113,#59,.T.);
#135=EDGE_CURVE('',#113,#113,#97,.T.);
#136=EDGE_CURVE('',#114,#115,#60,.T.);
#137=EDGE_CURVE('',#115,#104,#61,.T.);
#138=EDGE_CURVE('',#114,#111,#62,.T.);
#139=EDGE_CURVE('',#116,#114,#98,.T.);
#140=EDGE_CURVE('',#116,#110,#63,.T.);
#141=EDGE_CURVE('',#117,#116,#64,.T.);
#142=EDGE_CURVE('',#117,#109,#65,.T.);
#143=EDGE_CURVE('',#118,#117,#99,.T.);
#144=EDGE_CURVE('',#118,#108,#66,.T.);
#145=EDGE_CURVE('',#119,#118,#67,.T.);
#146=EDGE_CURVE('',#119,#107,#68,.T.);
#147=EDGE_CURVE('',#120,#119,#100,.T.);
#148=EDGE_CURVE('',#120,#106,#69,.T.);
#149=EDGE_CURVE('',#121,#120,#70,.T.);
#150=EDGE_CURVE('',#121,#105,#71,.T.);
#151=EDGE_CURVE('',#115,#121,#101,.T.);
#152=ORIENTED_EDGE('',*,*,#122,.F.);
#153=ORIENTED_EDGE('',*,*,#123,.T.);
#154=ORIENTED_EDGE('',*,*,#124,.F.);
#155=ORIENTED_EDGE('',*,*,#123,.F.);
#156=ORIENTED_EDGE('',*,*,#125,.T.);
#157=ORIENTED_EDGE('',*,*,#126,.T.);
#158=ORIENTED_EDGE('',*,*,#127,.T.);
#159=ORIENTED_EDGE('',*,*,#128,.T.);
#160=ORIENTED_EDGE('',*,*,#129,.T.);
#161=ORIENTED_EDGE('',*,*,#130,.T.);
#162=ORIENTED_EDGE('',*,*,#131,.T.);
#163=ORIENTED_EDGE('',*,*,#132,.T.);
#164=ORIENTED_EDGE('',*,*,#122,.T.);
#165=ORIENTED_EDGE('',*,*,#133,.F.);
#166=ORIENTED_EDGE('',*,*,#134,.T.);
#167=ORIENTED_EDGE('',*,*,#135,.F.);
#168=ORIENTED_EDGE('',*,*,#134,.F.);
#169=ORIENTED_EDGE('',*,*,#136,.T.);
#170=ORIENTED_EDGE('',*,*,#137,.T.);
#171=ORIENTED_EDGE('',*,*,#132,.F.);
#172=ORIENTED_EDGE('',*,*,#138,.F.);
#173=ORIENTED_EDGE('',*,*,#139,.T.);
#174=ORIENTED_EDGE('',*,*,#138,.T.);
#175=ORIENTED_EDGE('',*,*,#131,.F.);
#176=ORIENTED_EDGE('',*,*,#140,.F.);
#177=ORIENTED_EDGE('',*,*,#141,.T.);
#178=ORIENTED_EDGE('',*,*,#140,.T.);
#179=ORIENTED_EDGE('',*,*,#130,.F.);
#180=ORIENTED_EDGE('',*,*,#142,.F.);
#181=ORIENTED_EDGE('',*,*,#143,.T.);
#182=ORIENTED_EDGE('',*,*,#142,.T.);
#183=ORIENTED_EDGE('',*,*,#129,.F.);
#184=ORIENTED_EDGE('',*,*,#144,.F.);
#185=ORIENTED_EDGE('',*,*,#145,.T.);
#186=ORIENTED_EDGE('',*,*,#144,.T.);
#187=ORIENTED_EDGE('',*,*,#128,.F.);
#188=ORIENTED_EDGE('',*,*,#146,.F.);
#189=ORIENTED_EDGE('',*,*,#147,.T.);
#190=ORIENTED_EDGE('',*,*,#146,.T.);
#191=ORIENTED_EDGE('',*,*,#127,.F.);
#192=ORIENTED_EDGE('',*,*,#148,.F.);
#193=ORIENTED_EDGE('',*,*,#149,.T.);
#194=ORIENTED_EDGE('',*,*,#148,.T.);
#195=ORIENTED_EDGE('',*,*,#126,.F.);
#196=ORIENTED_EDGE('',*,*,#150,.F.);
#197=ORIENTED_EDGE('',*,*,#151,.T.);
#198=ORIENTED_EDGE('',*,*,#150,.T.);
#199=ORIENTED_EDGE('',*,*,#125,.F.);
#200=ORIENTED_EDGE('',*,*,#137,.F.);
#201=ORIENTED_EDGE('',*,*,#124,.T.);
#202=ORIENTED_EDGE('',*,*,#133,.T.);
#203=ORIENTED_EDGE('',*,*,#151,.F.);
#204=ORIENTED_EDGE('',*,*,#136,.F.);
#205=ORIENTED_EDGE('',*,*,#139,.F.);
#206=ORIENTED_EDGE('',*,*,#141,.F.);
#207=ORIENTED_EDGE('',*,*,#143,.F.);
#208=ORIENTED_EDGE('',*,*,#145,.F.);
#209=ORIENTED_EDGE('',*,*,#147,.F.);
#210=ORIENTED_EDGE('',*,*,#149,.F.);
#211=ORIENTED_EDGE('',*,*,#135,.T.);
#212=CYLINDRICAL_SURFACE('',#245,6.5);
#213=CYLINDRICAL_SURFACE('',#253,4.25);
#214=CYLINDRICAL_SURFACE('',#257,2.5);
#215=CYLINDRICAL_SURFACE('',#260,2.5);
#216=CYLINDRICAL_SURFACE('',#263,2.5);
#217=CYLINDRICAL_SURFACE('',#266,2.5);
#218=ADVANCED_FACE('',(#25),#212,.F.);
#219=ADVANCED_FACE('',(#26,#15),#18,.T.);
#220=ADVANCED_FACE('',(#27),#213,.F.);
#221=ADVANCED_FACE('',(#28),#19,.T.);
#222=ADVANCED_FACE('',(#29),#214,.T.);
#223=ADVANCED_FACE('',(#30),#20,.T.);
#224=ADVANCED_FACE('',(#31),#215,.T.);
#225=ADVANCED_FACE('',(#32),#21,.T.);
#226=ADVANCED_FACE('',(#33),#216,.T.);
#227=ADVANCED_FACE('',(#34),#22,.T.);
#228=ADVANCED_FACE('',(#35),#217,.T.);
#229=ADVANCED_FACE('',(#36,#16),#23,.T.);
#230=ADVANCED_FACE('',(#37,#17),#24,.F.);
#231=CLOSED_SHELL('',(#218,#219,#220,#221,#222,#223,#224,#225,#226,#227,
#228,#229,#230));
#232=DERIVED_UNIT_ELEMENT(#234,1.);
#233=DERIVED_UNIT_ELEMENT(#409,-3.);
#234=(
MASS_UNIT()
NAMED_UNIT(*)
SI_UNIT(.KILO.,.GRAM.)
);
#235=DERIVED_UNIT((#232,#233));
#236=MEASURE_REPRESENTATION_ITEM('density measure',
POSITIVE_RATIO_MEASURE(7850.),#235);
#237=PROPERTY_DEFINITION_REPRESENTATION(#242,#239);
#238=PROPERTY_DEFINITION_REPRESENTATION(#243,#240);
#239=REPRESENTATION('material name',(#241),#406);
#240=REPRESENTATION('density',(#236),#406);
#241=DESCRIPTIVE_REPRESENTATION_ITEM('Steel','Steel');
#242=PROPERTY_DEFINITION('material property','material name',#416);
#243=PROPERTY_DEFINITION('material property','density of part',#416);
#244=AXIS2_PLACEMENT_3D('placement',#340,#270,#271);
#245=AXIS2_PLACEMENT_3D('',#341,#272,#273);
#246=AXIS2_PLACEMENT_3D('',#343,#274,#275);
#247=AXIS2_PLACEMENT_3D('',#346,#277,#278);
#248=AXIS2_PLACEMENT_3D('',#347,#279,#280);
#249=AXIS2_PLACEMENT_3D('',#350,#281,#282);
#250=AXIS2_PLACEMENT_3D('',#354,#284,#285);
#251=AXIS2_PLACEMENT_3D('',#358,#287,#288);
#252=AXIS2_PLACEMENT_3D('',#362,#290,#291);
#253=AXIS2_PLACEMENT_3D('',#364,#293,#294);
#254=AXIS2_PLACEMENT_3D('',#366,#295,#296);
#255=AXIS2_PLACEMENT_3D('',#369,#298,#299);
#256=AXIS2_PLACEMENT_3D('',#370,#300,#301);
#257=AXIS2_PLACEMENT_3D('',#376,#305,#306);
#258=AXIS2_PLACEMENT_3D('',#378,#307,#308);
#259=AXIS2_PLACEMENT_3D('',#380,#310,#311);
#260=AXIS2_PLACEMENT_3D('',#384,#314,#315);
#261=AXIS2_PLACEMENT_3D('',#386,#316,#317);
#262=AXIS2_PLACEMENT_3D('',#388,#319,#320);
#263=AXIS2_PLACEMENT_3D('',#392,#323,#324);
#264=AXIS2_PLACEMENT_3D('',#394,#325,#326);
#265=AXIS2_PLACEMENT_3D('',#396,#328,#329);
#266=AXIS2_PLACEMENT_3D('',#400,#332,#333);
#267=AXIS2_PLACEMENT_3D('',#401,#334,#335);
#268=AXIS2_PLACEMENT_3D('',#402,#336,#337);
#269=AXIS2_PLACEMENT_3D('',#403,#338,#339);
#270=DIRECTION('axis',(0.,0.,1.));
#271=DIRECTION('refdir',(1.,0.,0.));
#272=DIRECTION('center_axis',(0.,0.,1.));
#273=DIRECTION('ref_axis',(1.,0.,0.));
#274=DIRECTION('center_axis',(0.,0.,-1.));
#275=DIRECTION('ref_axis',(1.,0.,0.));
#276=DIRECTION('',(0.,0.,-1.));
#277=DIRECTION('center_axis',(0.,0.,1.));
#278=DIRECTION('ref_axis',(1.,0.,0.));
#279=DIRECTION('center_axis',(0.,0.,1.));
#280=DIRECTION('ref_axis',(1.,0.,0.));
#281=DIRECTION('center_axis',(0.,0.,1.));
#282=DIRECTION('ref_axis',(-2.44249065417535E-15,1.,0.));
#283=DIRECTION('',(-1.77635683940025E-17,-1.,0.));
#284=DIRECTION('center_axis',(0.,0.,1.));
#285=DIRECTION('ref_axis',(-1.,-2.22044604925031E-16,0.));
#286=DIRECTION('',(1.,-2.22044604925031E-17,0.));
#287=DIRECTION('center_axis',(0.,0.,1.));
#288=DIRECTION('ref_axis',(0.,-1.,0.));
#289=DIRECTION('',(0.,1.,0.));
#290=DIRECTION('center_axis',(0.,0.,1.));
#291=DIRECTION('ref_axis',(1.,1.77635683940025E-15,0.));
#292=DIRECTION('',(-1.,-3.5527136788005E-16,0.));
#293=DIRECTION('center_axis',(0.,0.,1.));
#294=DIRECTION('ref_axis',(1.,0.,0.));
#295=DIRECTION('center_axis',(0.,0.,-1.));
#296=DIRECTION('ref_axis',(1.,0.,0.));
#297=DIRECTION('',(0.,0.,-1.));
#298=DIRECTION('center_axis',(0.,0.,1.));
#299=DIRECTION('ref_axis',(1.,0.,0.));
#300=DIRECTION('center_axis',(-3.5527136788005E-16,1.,0.));
#301=DIRECTION('ref_axis',(-1.,-3.5527136788005E-16,0.));
#302=DIRECTION('',(-1.,-3.5527136788005E-16,0.));
#303=DIRECTION('',(0.,0.,1.));
#304=DIRECTION('',(0.,0.,1.));
#305=DIRECTION('center_axis',(0.,0.,1.));
#306=DIRECTION('ref_axis',(1.,1.77635683940025E-15,0.));
#307=DIRECTION('center_axis',(0.,0.,1.));
#308=DIRECTION('ref_axis',(1.,1.77635683940025E-15,0.));
#309=DIRECTION('',(0.,0.,1.));
#310=DIRECTION('center_axis',(1.,0.,0.));
#311=DIRECTION('ref_axis',(0.,1.,0.));
#312=DIRECTION('',(0.,1.,0.));
#313=DIRECTION('',(0.,0.,1.));
#314=DIRECTION('center_axis',(0.,0.,1.));
#315=DIRECTION('ref_axis',(0.,-1.,0.));
#316=DIRECTION('center_axis',(0.,0.,1.));
#317=DIRECTION('ref_axis',(0.,-1.,0.));
#318=DIRECTION('',(0.,0.,1.));
#319=DIRECTION('center_axis',(-2.22044604925031E-17,-1.,0.));
#320=DIRECTION('ref_axis',(1.,-2.22044604925031E-17,0.));
#321=DIRECTION('',(1.,-2.22044604925031E-17,0.));
#322=DIRECTION('',(0.,0.,1.));
#323=DIRECTION('center_axis',(0.,0.,1.));
#324=DIRECTION('ref_axis',(-1.,-2.22044604925031E-16,0.));
#325=DIRECTION('center_axis',(0.,0.,1.));
#326=DIRECTION('ref_axis',(-1.,-2.22044604925031E-16,0.));
#327=DIRECTION('',(0.,0.,1.));
#328=DIRECTION('center_axis',(-1.,1.77635683940025E-17,0.));
#329=DIRECTION('ref_axis',(-1.77635683940025E-17,-1.,0.));
#330=DIRECTION('',(-1.77635683940025E-17,-1.,0.));
#331=DIRECTION('',(0.,0.,1.));
#332=DIRECTION('center_axis',(0.,0.,1.));
#333=DIRECTION('ref_axis',(-2.44249065417535E-15,1.,0.));
#334=DIRECTION('center_axis',(0.,0.,1.));
#335=DIRECTION('ref_axis',(-2.44249065417535E-15,1.,0.));
#336=DIRECTION('center_axis',(0.,0.,1.));
#337=DIRECTION('ref_axis',(1.,0.,0.));
#338=DIRECTION('center_axis',(0.,0.,1.));
#339=DIRECTION('ref_axis',(1.,0.,0.));
#340=CARTESIAN_POINT('',(0.,0.,0.));
#341=CARTESIAN_POINT('Origin',(15.,15.,0.));
#342=CARTESIAN_POINT('',(8.5,15.,3.));
#343=CARTESIAN_POINT('Origin',(15.,15.,3.));
#344=CARTESIAN_POINT('',(8.5,15.,1.5));
#345=CARTESIAN_POINT('',(8.5,15.,0.));
#346=CARTESIAN_POINT('Origin',(15.,15.,1.5));
#347=CARTESIAN_POINT('Origin',(15.,15.,3.));
#348=CARTESIAN_POINT('',(2.5,30.,3.));
#349=CARTESIAN_POINT('',(1.0547118733939E-14,27.5,3.));
#350=CARTESIAN_POINT('Origin',(2.50000000000001,27.5,3.));
#351=CARTESIAN_POINT('',(0.,2.5,3.));
#352=CARTESIAN_POINT('',(4.44089209850063E-16,27.5,3.));
#353=CARTESIAN_POINT('',(2.5,0.,3.));
#354=CARTESIAN_POINT('Origin',(2.5,2.5,3.));
#355=CARTESIAN_POINT('',(27.5,0.,3.));
#356=CARTESIAN_POINT('',(2.5,5.55111512312578E-16,3.));
#357=CARTESIAN_POINT('',(30.,2.5,3.));
#358=CARTESIAN_POINT('Origin',(27.5,2.5,3.));
#359=CARTESIAN_POINT('',(30.,27.5,3.));
#360=CARTESIAN_POINT('',(30.,2.5,3.));
#361=CARTESIAN_POINT('',(27.5,30.,3.));
#362=CARTESIAN_POINT('Origin',(27.5,27.5,3.));
#363=CARTESIAN_POINT('',(27.5,30.,3.));
#364=CARTESIAN_POINT('Origin',(15.,15.,0.));
#365=CARTESIAN_POINT('',(10.75,15.,1.5));
#366=CARTESIAN_POINT('Origin',(15.,15.,1.5));
#367=CARTESIAN_POINT('',(10.75,15.,0.));
#368=CARTESIAN_POINT('',(10.75,15.,0.));
#369=CARTESIAN_POINT('Origin',(15.,15.,0.));
#370=CARTESIAN_POINT('Origin',(27.5,30.,0.));
#371=CARTESIAN_POINT('',(27.5,30.,0.));
#372=CARTESIAN_POINT('',(2.5,30.,0.));
#373=CARTESIAN_POINT('',(27.5,30.,0.));
#374=CARTESIAN_POINT('',(2.5,30.,0.));
#375=CARTESIAN_POINT('',(27.5,30.,0.));
#376=CARTESIAN_POINT('Origin',(27.5,27.5,0.));
#377=CARTESIAN_POINT('',(30.,27.5,0.));
#378=CARTESIAN_POINT('Origin',(27.5,27.5,0.));
#379=CARTESIAN_POINT('',(30.,27.5,0.));
#380=CARTESIAN_POINT('Origin',(30.,2.5,0.));
#381=CARTESIAN_POINT('',(30.,2.5,0.));
#382=CARTESIAN_POINT('',(30.,2.5,0.));
#383=CARTESIAN_POINT('',(30.,2.5,0.));
#384=CARTESIAN_POINT('Origin',(27.5,2.5,0.));
#385=CARTESIAN_POINT('',(27.5,0.,0.));
#386=CARTESIAN_POINT('Origin',(27.5,2.5,0.));
#387=CARTESIAN_POINT('',(27.5,0.,0.));
#388=CARTESIAN_POINT('Origin',(2.5,5.55111512312578E-16,0.));
#389=CARTESIAN_POINT('',(2.5,5.55111512312578E-16,0.));
#390=CARTESIAN_POINT('',(2.5,5.55111512312578E-16,0.));
#391=CARTESIAN_POINT('',(2.5,5.55111512312578E-16,0.));
#392=CARTESIAN_POINT('Origin',(2.5,2.5,0.));
#393=CARTESIAN_POINT('',(0.,2.5,0.));
#394=CARTESIAN_POINT('Origin',(2.5,2.5,0.));
#395=CARTESIAN_POINT('',(0.,2.5,0.));
#396=CARTESIAN_POINT('Origin',(4.44089209850063E-16,27.5,0.));
#397=CARTESIAN_POINT('',(1.0547118733939E-14,27.5,0.));
#398=CARTESIAN_POINT('',(4.44089209850063E-16,27.5,0.));
#399=CARTESIAN_POINT('',(1.0547118733939E-14,27.5,0.));
#400=CARTESIAN_POINT('Origin',(2.50000000000001,27.5,0.));
#401=CARTESIAN_POINT('Origin',(2.50000000000001,27.5,0.));
#402=CARTESIAN_POINT('Origin',(15.,15.,1.5));
#403=CARTESIAN_POINT('Origin',(15.,15.,0.));
#404=UNCERTAINTY_MEASURE_WITH_UNIT(LENGTH_MEASURE(0.01),#408,
'DISTANCE_ACCURACY_VALUE',
'Maximum model space distance between geometric entities at asserted c
onnectivities');
#405=UNCERTAINTY_MEASURE_WITH_UNIT(LENGTH_MEASURE(0.01),#408,
'DISTANCE_ACCURACY_VALUE',
'Maximum model space distance between geometric entities at asserted c
onnectivities');
#406=(
GEOMETRIC_REPRESENTATION_CONTEXT(3)
GLOBAL_UNCERTAINTY_ASSIGNED_CONTEXT((#404))
GLOBAL_UNIT_ASSIGNED_CONTEXT((#408,#410,#411))
REPRESENTATION_CONTEXT('','3D')
);
#407=(
GEOMETRIC_REPRESENTATION_CONTEXT(3)
GLOBAL_UNCERTAINTY_ASSIGNED_CONTEXT((#405))
GLOBAL_UNIT_ASSIGNED_CONTEXT((#408,#410,#411))
REPRESENTATION_CONTEXT('','3D')
);
#408=(
LENGTH_UNIT()
NAMED_UNIT(*)
SI_UNIT(.MILLI.,.METRE.)
);
#409=(
LENGTH_UNIT()
NAMED_UNIT(*)
SI_UNIT($,.METRE.)
);
#410=(
NAMED_UNIT(*)
PLANE_ANGLE_UNIT()
SI_UNIT($,.RADIAN.)
);
#411=(
NAMED_UNIT(*)
SI_UNIT($,.STERADIAN.)
SOLID_ANGLE_UNIT()
);
#412=SHAPE_DEFINITION_REPRESENTATION(#413,#414);
#413=PRODUCT_DEFINITION_SHAPE('',$,#416);
#414=SHAPE_REPRESENTATION('',(#244),#406);
#415=PRODUCT_DEFINITION_CONTEXT('part definition',#420,'design');
#416=PRODUCT_DEFINITION('Aluminum 30x30 Endcap',
'Aluminum 30x30 Endcap v1',#417,#415);
#417=PRODUCT_DEFINITION_FORMATION('',$,#422);
#418=PRODUCT_RELATED_PRODUCT_CATEGORY('Aluminum 30x30 Endcap v1',
'Aluminum 30x30 Endcap v1',(#422));
#419=APPLICATION_PROTOCOL_DEFINITION('international standard',
'automotive_design',2009,#420);
#420=APPLICATION_CONTEXT(
'Core Data for Automotive Mechanical Design Process');
#421=PRODUCT_CONTEXT('part definition',#420,'mechanical');
#422=PRODUCT('Aluminum 30x30 Endcap','Aluminum 30x30 Endcap v1',$,(#421));
#423=PRESENTATION_STYLE_ASSIGNMENT((#425));
#424=PRESENTATION_STYLE_ASSIGNMENT((#426));
#425=SURFACE_STYLE_USAGE(.BOTH.,#427);
#426=SURFACE_STYLE_USAGE(.BOTH.,#428);
#427=SURFACE_SIDE_STYLE('',(#429));
#428=SURFACE_SIDE_STYLE('',(#430));
#429=SURFACE_STYLE_FILL_AREA(#431);
#430=SURFACE_STYLE_FILL_AREA(#432);
#431=FILL_AREA_STYLE('Steel - Satin',(#433));
#432=FILL_AREA_STYLE('Aluminum - Satin',(#434));
#433=FILL_AREA_STYLE_COLOUR('Steel - Satin',#435);
#434=FILL_AREA_STYLE_COLOUR('Aluminum - Satin',#436);
#435=COLOUR_RGB('Steel - Satin',0.627450980392157,0.627450980392157,0.627450980392157);
#436=COLOUR_RGB('Aluminum - Satin',0.96078431372549,0.96078431372549,0.964705882352941);
ENDSEC;
END-ISO-10303-21;
