ISO-10303-21;
HEADER;
FILE_DESCRIPTION (( 'STEP AP203' ),
    '1' );
FILE_NAME ('1.CAP.013.STEP',
    '2015-10-08T10:03:50',
    ( '' ),
    ( '' ),
    'SwSTEP 2.0',
    'SolidWorks 2012',
    '' );
FILE_SCHEMA (( 'CONFIG_CONTROL_DESIGN' ));
ENDSEC;

DATA;
#1 = DIRECTION ( 'NONE',  ( -1.224646799147353200E-016, 0.0000000000000000000, 1.000000000000000000 ) ) ;
#2 = CARTESIAN_POINT ( 'NONE',  ( 1.040834085586084300E-014, -24.69999999999999900, 0.0000000000000000000 ) ) ;
#3 = DIRECTION ( 'NONE',  ( 0.0000000000000000000, 0.0000000000000000000, 1.000000000000000000 ) ) ;
#4 = DIRECTION ( 'NONE',  ( 0.0000000000000000000, 1.000000000000000000, 0.0000000000000000000 ) ) ;
#5 = CARTESIAN_POINT ( 'NONE',  ( 0.0000000000000000000, 7.186517527005047000, 0.0000000000000000000 ) ) ;
#6 = DIRECTION ( 'NONE',  ( 0.0000000000000000000, 0.0000000000000000000, 1.000000000000000000 ) ) ;
#7 = DIRECTION ( 'NONE',  ( 0.0000000000000000000, 1.000000000000000000, 0.0000000000000000000 ) ) ;
#8 = CARTESIAN_POINT ( 'NONE',  ( 0.0000000000000000000, 7.186517527005047000, 0.0000000000000000000 ) ) ;
#9 = CARTESIAN_POINT ( 'NONE',  ( 0.0000000000000000000, 0.0000000000000000000, 6.899999999999996800 ) ) ;
#10 = DIRECTION ( 'NONE',  ( -1.000000000000000000, 0.0000000000000000000, 0.0000000000000000000 ) ) ;
#11 = DIRECTION ( 'NONE',  ( 0.0000000000000000000, 0.0000000000000000000, -1.000000000000000000 ) ) ;
#12 = CARTESIAN_POINT ( 'NONE',  ( 1.040834085586084300E-014, -24.69999999999999900, 0.0000000000000000000 ) ) ;
#13 = CARTESIAN_POINT ( 'NONE',  ( 8.450062914116733700E-016, 0.0000000000000000000, -6.899999999999996800 ) ) ;
#14 = DIRECTION ( 'NONE',  ( 1.000000000000000000, 0.0000000000000000000, 1.224646799147353200E-016 ) ) ;
#15 = DIRECTION ( 'NONE',  ( -1.224646799147353200E-016, 0.0000000000000000000, 1.000000000000000000 ) ) ;
#16 = CARTESIAN_POINT ( 'NONE',  ( 1.040834085586084300E-014, -24.69999999999999900, 0.0000000000000000000 ) ) ;
#17 = DIRECTION ( 'NONE',  ( 0.0000000000000000000, 0.0000000000000000000, -1.000000000000000000 ) ) ;
#18 = DIRECTION ( 'NONE',  ( -0.0000000000000000000, 1.000000000000000000, -0.0000000000000000000 ) ) ;
#19 = CARTESIAN_POINT ( 'NONE',  ( 0.0000000000000000000, 7.245422207258434000, 0.0000000000000000000 ) ) ;
#20 = DIRECTION ( 'NONE',  ( 0.0000000000000000000, 1.000000000000000000, 0.0000000000000000000 ) ) ;
#21 = DIRECTION ( 'NONE',  ( 0.0000000000000000000, 0.0000000000000000000, -1.000000000000000000 ) ) ;
#22 = DIRECTION ( 'NONE',  ( -0.0000000000000000000, 1.000000000000000000, -0.0000000000000000000 ) ) ;
#23 = APPROVAL_ROLE ( '' ) ;
#24 = CARTESIAN_POINT ( 'NONE',  ( 0.0000000000000000000, 7.245422207258434000, 0.0000000000000000000 ) ) ;
#25 = APPROVAL_STATUS ( 'not_yet_approved' ) ;
#26 = DATE_TIME_ROLE ( 'classification_date' ) ;
#27 = PERSON_AND_ORGANIZATION_ROLE ( 'classification_officer' ) ;
#28 = SECURITY_CLASSIFICATION_LEVEL ( 'unclassified' ) ;
#29 = DIRECTION ( 'NONE',  ( 0.0000000000000000000, 1.000000000000000000, 0.0000000000000000000 ) ) ;
#30 = PERSON_AND_ORGANIZATION_ROLE ( 'design_supplier' ) ;
#31 = PERSON_AND_ORGANIZATION_ROLE ( 'creator' ) ;
#32 = APPROVAL_ROLE ( '' ) ;
#33 = DIRECTION ( 'NONE',  ( 0.0000000000000000000, 0.0000000000000000000, -1.000000000000000000 ) ) ;
#34 = DIRECTION ( 'NONE',  ( -0.0000000000000000000, 1.000000000000000000, -0.0000000000000000000 ) ) ;
#35 = APPROVAL_STATUS ( 'not_yet_approved' ) ;
#36 = CARTESIAN_POINT ( 'NONE',  ( 0.0000000000000000000, 7.245422207258434000, 0.0000000000000000000 ) ) ;
#37 = DATE_TIME_ROLE ( 'creation_date' ) ;
#38 = PERSON_AND_ORGANIZATION_ROLE ( 'creator' ) ;
#39 = APPROVAL_ROLE ( '' ) ;
#40 = APPROVAL_STATUS ( 'not_yet_approved' ) ;
#41 = APPLICATION_PROTOCOL_DEFINITION ( 'international standard', 'config_control_design', 1994, #43 ) ;
#42 = DIRECTION ( 'NONE',  ( 0.0000000000000000000, 1.000000000000000000, 0.0000000000000000000 ) ) ;
#43 = APPLICATION_CONTEXT ( 'configuration controlled 3d designs of mechanical parts and assemblies' ) ;
#44 = PERSON_AND_ORGANIZATION_ROLE ( 'design_owner' ) ;
#45 = CARTESIAN_POINT ( 'NONE',  ( 0.0000000000000000000, 0.0000000000000000000, 6.499999999999996400 ) ) ;
#46 = MECHANICAL_CONTEXT ( 'NONE', #49, 'mechanical' ) ;
#47 = DIRECTION ( 'NONE',  ( 1.000000000000000000, 0.0000000000000000000, 0.0000000000000000000 ) ) ;
#48 = DIRECTION ( 'NONE',  ( 0.0000000000000000000, 0.0000000000000000000, 1.000000000000000000 ) ) ;
#49 = APPLICATION_CONTEXT ( 'configuration controlled 3d designs of mechanical parts and assemblies' ) ;
#50 = APPLICATION_PROTOCOL_DEFINITION ( 'international standard', 'config_control_design', 1994, #49 ) ;
#51 =( NAMED_UNIT ( * ) SI_UNIT ( $, .STERADIAN. ) SOLID_ANGLE_UNIT ( ) );
#52 =( NAMED_UNIT ( * ) PLANE_ANGLE_UNIT ( ) SI_UNIT ( $, .RADIAN. ) );
#53 =( LENGTH_UNIT ( ) NAMED_UNIT ( * ) SI_UNIT ( .MILLI., .METRE. ) );
#54 = DIRECTION ( 'NONE',  ( 0.0000000000000000000, 0.0000000000000000000, -1.000000000000000000 ) ) ;
#55 = DIRECTION ( 'NONE',  ( -0.0000000000000000000, 1.000000000000000000, -0.0000000000000000000 ) ) ;
#56 = CARTESIAN_POINT ( 'NONE',  ( 0.0000000000000000000, 7.245422207258434000, 0.0000000000000000000 ) ) ;
#57 = DIRECTION ( 'NONE',  ( 0.0000000000000000000, 0.0000000000000000000, -1.000000000000000000 ) ) ;
#58 = DIRECTION ( 'NONE',  ( -0.0000000000000000000, 1.000000000000000000, -0.0000000000000000000 ) ) ;
#59 = CARTESIAN_POINT ( 'NONE',  ( 0.0000000000000000000, 0.2999999999999947200, 0.0000000000000000000 ) ) ;
#60 = CARTESIAN_POINT ( 'NONE',  ( 0.0000000000000000000, 0.0000000000000000000, 0.0000000000000000000 ) ) ;
#61 = DIRECTION ( 'NONE',  ( 0.0000000000000000000, 0.0000000000000000000, 1.000000000000000000 ) ) ;
#62 = DIRECTION ( 'NONE',  ( 0.0000000000000000000, 1.000000000000000000, 0.0000000000000000000 ) ) ;
#63 = DIRECTION ( 'NONE',  ( 0.0000000000000000000, 1.000000000000000000, 0.0000000000000000000 ) ) ;
#64 = CARTESIAN_POINT ( 'NONE',  ( 0.0000000000000000000, 7.186517527005047000, 0.0000000000000000000 ) ) ;
#65 = DIRECTION ( 'NONE',  ( 0.0000000000000000000, 0.0000000000000000000, 1.000000000000000000 ) ) ;
#66 = DIRECTION ( 'NONE',  ( 0.0000000000000000000, 0.0000000000000000000, -1.000000000000000000 ) ) ;
#67 = DIRECTION ( 'NONE',  ( 0.0000000000000000000, 1.000000000000000000, 0.0000000000000000000 ) ) ;
#68 = CARTESIAN_POINT ( 'NONE',  ( 0.0000000000000000000, 7.186517527005047000, 0.0000000000000000000 ) ) ;
#69 = DIRECTION ( 'NONE',  ( 0.0000000000000000000, -1.000000000000000000, 0.0000000000000000000 ) ) ;
#70 = DIRECTION ( 'NONE',  ( 0.0000000000000000000, 0.0000000000000000000, -1.000000000000000000 ) ) ;
#71 = CARTESIAN_POINT ( 'NONE',  ( 0.0000000000000000000, 0.0000000000000000000, 0.0000000000000000000 ) ) ;
#72 = DIRECTION ( 'NONE',  ( -0.0000000000000000000, 1.000000000000000000, -0.0000000000000000000 ) ) ;
#73 = CARTESIAN_POINT ( 'NONE',  ( 0.0000000000000000000, 0.0000000000000000000, 0.0000000000000000000 ) ) ;
#74 = DIRECTION ( 'NONE',  ( 0.0000000000000000000, 0.0000000000000000000, -1.000000000000000000 ) ) ;
#75 = CARTESIAN_POINT ( 'NONE',  ( 8.450062914116733700E-016, 0.2999999999999947200, -6.899999999999996800 ) ) ;
#76 = DIRECTION ( 'NONE',  ( 0.0000000000000000000, -1.000000000000000000, 0.0000000000000000000 ) ) ;
#77 = CARTESIAN_POINT ( 'NONE',  ( 0.0000000000000000000, 0.0000000000000000000, 0.0000000000000000000 ) ) ;
#78 = CARTESIAN_POINT ( 'NONE',  ( 7.960204194457791500E-016, 0.0000000000000000000, -6.499999999999996400 ) ) ;
#79 = DIRECTION ( 'NONE',  ( -1.000000000000000000, 0.0000000000000000000, 0.0000000000000000000 ) ) ;
#80 = DIRECTION ( 'NONE',  ( 0.0000000000000000000, 0.0000000000000000000, -1.000000000000000000 ) ) ;
#81 = DIRECTION ( 'NONE',  ( 0.0000000000000000000, 1.000000000000000000, 0.0000000000000000000 ) ) ;
#82 = CARTESIAN_POINT ( 'NONE',  ( 1.040834085586084300E-014, -24.69999999999999900, 0.0000000000000000000 ) ) ;
#83 = DIRECTION ( 'NONE',  ( -1.000000000000000000, 0.0000000000000000000, 0.0000000000000000000 ) ) ;
#84 = DIRECTION ( 'NONE',  ( 1.000000000000000000, 0.0000000000000000000, 1.224646799147353500E-016 ) ) ;
#85 = DIRECTION ( 'NONE',  ( 8.659560562354944000E-017, 0.7071067811865466800, -0.7071067811865483500 ) ) ;
#86 = DIRECTION ( 'NONE',  ( 0.0000000000000000000, 0.0000000000000000000, -1.000000000000000000 ) ) ;
#87 = DIRECTION ( 'NONE',  ( -0.0000000000000000000, 1.000000000000000000, -0.0000000000000000000 ) ) ;
#88 = CARTESIAN_POINT ( 'NONE',  ( 0.0000000000000000000, 0.0000000000000000000, 0.0000000000000000000 ) ) ;
#89 = CARTESIAN_POINT ( 'NONE',  ( 0.0000000000000000000, 0.2999999999999947200, 6.899999999999996800 ) ) ;
#90 = DIRECTION ( 'NONE',  ( 0.0000000000000000000, 0.0000000000000000000, -1.000000000000000000 ) ) ;
#91 = DIRECTION ( 'NONE',  ( -0.0000000000000000000, 1.000000000000000000, -0.0000000000000000000 ) ) ;
#92 = CARTESIAN_POINT ( 'NONE',  ( 0.0000000000000000000, 0.2999999999999947200, 0.0000000000000000000 ) ) ;
#93 = DIRECTION ( 'NONE',  ( 0.0000000000000000000, 0.7071067811865466800, 0.7071067811865483500 ) ) ;
#94 = CARTESIAN_POINT ( 'NONE',  ( 0.0000000000000000000, 0.0000000000000000000, 0.0000000000000000000 ) ) ;
#95 = CARTESIAN_POINT ( 'NONE',  ( 7.960204194457797400E-016, 0.0000000000000000000, -6.500000000000000900 ) ) ;
#96 = CARTESIAN_POINT ( 'NONE',  ( 0.0000000000000000000, 7.186517527005047000, 6.899999999999996800 ) ) ;
#97 = CARTESIAN_POINT ( 'NONE',  ( 8.412166573250656200E-015, 7.900000000000003900, 0.0000000000000000000 ) ) ;
#98 = CARTESIAN_POINT ( 'NONE',  ( 0.0000000000000000000, 0.0000000000000000000, 6.600000000000001400 ) ) ;
#99 = CARTESIAN_POINT ( 'NONE',  ( 8.450062914116738600E-016, 7.186517527005047000, -6.900000000000000400 ) ) ;
#100 = CARTESIAN_POINT ( 'NONE',  ( 0.0000000000000000000, 7.245422207258434000, 6.500000000000000900 ) ) ;
#101 = CARTESIAN_POINT ( 'NONE',  ( 8.266365894244633300E-016, 0.0000000000000000000, -6.600000000000001400 ) ) ;
#102 = CARTESIAN_POINT ( 'NONE',  ( -8.499999999999959100, 7.186517527005047000, 0.0000000000000000000 ) ) ;
#103 = CARTESIAN_POINT ( 'NONE',  ( 8.387673637267711000E-015, 8.300000000000002500, 0.0000000000000000000 ) ) ;
#104 = DIRECTION ( 'NONE',  ( 0.0000000000000000000, -0.0000000000000000000, 1.000000000000000000 ) ) ;
#105 = CARTESIAN_POINT ( 'NONE',  ( 0.0000000000000000000, 0.2999999999999947200, 6.900000000000000400 ) ) ;
#106 = CARTESIAN_POINT ( 'NONE',  ( 1.040834085586084300E-014, -24.69999999999999900, 0.0000000000000000000 ) ) ;
#107 = CARTESIAN_POINT ( 'NONE',  ( -6.499999999999943200, 7.245422207258434000, 0.0000000000000000000 ) ) ;
#108 = CARTESIAN_POINT ( 'NONE',  ( 6.499999999999953800, 7.245422207258434000, 7.960204194457727400E-016 ) ) ;
#109 = CARTESIAN_POINT ( 'NONE',  ( 8.499999999999969800, 7.186517527005047000, 1.040949779275245200E-015 ) ) ;
#110 = DIRECTION ( 'NONE',  ( 0.0000000000000000000, 0.0000000000000000000, 1.000000000000000000 ) ) ;
#111 = CARTESIAN_POINT ( 'NONE',  ( 7.960204194457797400E-016, 7.245422207258434000, -6.500000000000000900 ) ) ;
#112 = CARTESIAN_POINT ( 'NONE',  ( 0.0000000000000000000, 0.0000000000000000000, 0.0000000000000000000 ) ) ;
#113 = CARTESIAN_POINT ( 'NONE',  ( 0.0000000000000000000, 0.0000000000000000000, 6.500000000000000900 ) ) ;
#114 = DIRECTION ( 'NONE',  ( -1.000000000000000000, 0.0000000000000000000, 0.0000000000000000000 ) ) ;
#115 = CARTESIAN_POINT ( 'NONE',  ( 0.0000000000000000000, 0.2999999999999947200, 0.0000000000000000000 ) ) ;
#116 = CARTESIAN_POINT ( 'NONE',  ( 8.450062914116738600E-016, 0.2999999999999947200, -6.900000000000000400 ) ) ;
#117 = DIRECTION ( 'NONE',  ( 0.0000000000000000000, 1.000000000000000000, 0.0000000000000000000 ) ) ;
#118 = DIRECTION ( 'NONE',  ( 0.0000000000000000000, 1.000000000000000000, 0.0000000000000000000 ) ) ;
#119 = DIRECTION ( 'NONE',  ( 0.0000000000000000000, -0.0000000000000000000, 1.000000000000000000 ) ) ;
#120 = CARTESIAN_POINT ( 'NONE',  ( 0.0000000000000000000, 0.2999999999999947200, 0.0000000000000000000 ) ) ;
#121 = DIRECTION ( 'NONE',  ( 0.0000000000000000000, 0.0000000000000000000, 1.000000000000000000 ) ) ;
#122 = DIRECTION ( 'NONE',  ( -1.000000000000000000, 0.0000000000000000000, 0.0000000000000000000 ) ) ;
#123 = DIRECTION ( 'NONE',  ( 0.0000000000000000000, 1.000000000000000000, 0.0000000000000000000 ) ) ;
#124 = DIRECTION ( 'NONE',  ( 0.0000000000000000000, 0.0000000000000000000, 1.000000000000000000 ) ) ;
#125 = CARTESIAN_POINT ( 'NONE',  ( 1.040834085586084300E-014, -24.69999999999999900, 0.0000000000000000000 ) ) ;
#126 = CARTESIAN_POINT ( 'NONE',  ( 0.0000000000000000000, 0.0000000000000000000, 0.0000000000000000000 ) ) ;
#127 = CARTESIAN_POINT ( 'NONE',  ( 0.0000000000000000000, 0.0000000000000000000, 0.0000000000000000000 ) ) ;
#128 = DIRECTION ( 'NONE',  ( 0.0000000000000000000, -0.0000000000000000000, 1.000000000000000000 ) ) ;
#129 = DIRECTION ( 'NONE',  ( 0.0000000000000000000, 1.000000000000000000, 0.0000000000000000000 ) ) ;
#130 = CARTESIAN_POINT ( 'NONE',  ( 0.0000000000000000000, 0.0000000000000000000, 0.0000000000000000000 ) ) ;
#131 = DIRECTION ( 'NONE',  ( 0.0000000000000000000, 0.0000000000000000000, 1.000000000000000000 ) ) ;
#132 = CARTESIAN_POINT ( 'NONE',  ( 1.040834085586084300E-014, -24.69999999999999900, 0.0000000000000000000 ) ) ;
#133 = DIRECTION ( 'NONE',  ( -1.000000000000000000, 0.0000000000000000000, 0.0000000000000000000 ) ) ;
#134 = DIRECTION ( 'NONE',  ( 0.0000000000000000000, 1.000000000000000000, 0.0000000000000000000 ) ) ;
#135 = DIRECTION ( 'NONE',  ( 0.0000000000000000000, 0.0000000000000000000, 1.000000000000000000 ) ) ;
#136 = CARTESIAN_POINT ( 'NONE',  ( -6.899999999999989700, 7.186517527005047000, 0.0000000000000000000 ) ) ;
#137 = CARTESIAN_POINT ( 'NONE',  ( 1.040834085586084300E-014, -24.69999999999999900, 0.0000000000000000000 ) ) ;
#138 = DIRECTION ( 'NONE',  ( 0.0000000000000000000, 0.0000000000000000000, 1.000000000000000000 ) ) ;
#139 = DIRECTION ( 'NONE',  ( 0.0000000000000000000, 0.0000000000000000000, -1.000000000000000000 ) ) ;
#140 = DIRECTION ( 'NONE',  ( 0.0000000000000000000, -1.000000000000000000, 0.0000000000000000000 ) ) ;
#141 = DIRECTION ( 'NONE',  ( 0.0000000000000000000, 0.0000000000000000000, -1.000000000000000000 ) ) ;
#142 = DIRECTION ( 'NONE',  ( 0.0000000000000000000, -0.0000000000000000000, 1.000000000000000000 ) ) ;
#143 = PLANE ( 'NONE',  #359 ) ;
#144 = DIRECTION ( 'NONE',  ( 0.0000000000000000000, -1.000000000000000000, 0.0000000000000000000 ) ) ;
#145 = PLANE ( 'NONE',  #353 ) ;
#146 = ADVANCED_FACE ( 'NONE', ( #302, #265 ), #143, .T. ) ;
#147 = ADVANCED_FACE ( 'NONE', ( #261 ), #260, .F. ) ;
#148 = ADVANCED_FACE ( 'NONE', ( #255 ), #257, .T. ) ;
#149 = ADVANCED_FACE ( 'NONE', ( #253 ), #251, .F. ) ;
#150 = ADVANCED_FACE ( 'NONE', ( #254 ), #249, .T. ) ;
#151 = ADVANCED_FACE ( 'NONE', ( #256, #248 ), #145, .T. ) ;
#152 = ADVANCED_FACE ( 'NONE', ( #259 ), #250, .F. ) ;
#153 = ADVANCED_FACE ( 'NONE', ( #245 ), #242, .F. ) ;
#154 = ADVANCED_FACE ( 'NONE', ( #246 ), #240, .T. ) ;
#155 = ADVANCED_FACE ( 'NONE', ( #247 ), #243, .T. ) ;
#156 = ADVANCED_FACE ( 'NONE', ( #238 ), #234, .T. ) ;
#157 = ADVANCED_FACE ( 'NONE', ( #239 ), #232, .T. ) ;
#158 = DESIGN_CONTEXT ( 'detailed design', #43, 'design' ) ;
#159 = PRODUCT_DEFINITION_SHAPE ( 'NONE', 'NONE',  #385 ) ;
#160 = VERTEX_POINT ( 'NONE', #111 ) ;
#161 = EDGE_LOOP ( 'NONE', ( #310, #311, #314, #316 ) ) ;
#162 = EDGE_LOOP ( 'NONE', ( #273, #274, #275, #276 ) ) ;
#163 = EDGE_LOOP ( 'NONE', ( #317, #318, #319, #320, #321 ) ) ;
#164 = CLOSED_SHELL ( 'NONE', ( #157, #149, #152, #150, #148, #146, #155, #151, #154, #147, #153, #156 ) ) ;
#165 = EDGE_LOOP ( 'NONE', ( #289, #290 ) ) ;
#166 = EDGE_LOOP ( 'NONE', ( #298, #300 ) ) ;
#167 = EDGE_LOOP ( 'NONE', ( #292, #293, #297 ) ) ;
#168 = EDGE_LOOP ( 'NONE', ( #286, #287 ) ) ;
#169 = VERTEX_POINT ( 'NONE', #109 ) ;
#170 = APPROVAL_DATE_TIME ( #171, #333 ) ;
#171 = DATE_AND_TIME ( #172, #173 ) ;
#172 = CALENDAR_DATE ( 2015, 8, 10 ) ;
#173 = LOCAL_TIME ( 12, 3, 50.00000000000000000, #174 ) ;
#174 = COORDINATED_UNIVERSAL_TIME_OFFSET ( 1, 0, .AHEAD. ) ;
#175 = APPROVAL_PERSON_ORGANIZATION ( #176, #333, #23 ) ;
#176 = PERSON_AND_ORGANIZATION ( #404, #204 ) ;
#177 = DATE_AND_TIME ( #178, #179 ) ;
#178 = CALENDAR_DATE ( 2015, 8, 10 ) ;
#179 = LOCAL_TIME ( 12, 3, 50.00000000000000000, #180 ) ;
#180 = COORDINATED_UNIVERSAL_TIME_OFFSET ( 1, 0, .AHEAD. ) ;
#181 = PERSON_AND_ORGANIZATION ( #404, #204 ) ;
#182 = PERSON_AND_ORGANIZATION ( #404, #204 ) ;
#183 = PERSON_AND_ORGANIZATION ( #404, #204 ) ;
#184 = APPROVAL_DATE_TIME ( #185, #342 ) ;
#185 = DATE_AND_TIME ( #186, #187 ) ;
#186 = CALENDAR_DATE ( 2015, 8, 10 ) ;
#187 = LOCAL_TIME ( 12, 3, 50.00000000000000000, #188 ) ;
#188 = COORDINATED_UNIVERSAL_TIME_OFFSET ( 1, 0, .AHEAD. ) ;
#189 = APPROVAL_PERSON_ORGANIZATION ( #190, #342, #32 ) ;
#190 = PERSON_AND_ORGANIZATION ( #404, #204 ) ;
#191 = DATE_AND_TIME ( #192, #193 ) ;
#192 = CALENDAR_DATE ( 2015, 8, 10 ) ;
#193 = LOCAL_TIME ( 12, 3, 50.00000000000000000, #194 ) ;
#194 = COORDINATED_UNIVERSAL_TIME_OFFSET ( 1, 0, .AHEAD. ) ;
#195 = PERSON_AND_ORGANIZATION ( #404, #204 ) ;
#196 = APPROVAL_DATE_TIME ( #197, #402 ) ;
#197 = DATE_AND_TIME ( #198, #199 ) ;
#198 = CALENDAR_DATE ( 2015, 8, 10 ) ;
#199 = LOCAL_TIME ( 12, 3, 50.00000000000000000, #200 ) ;
#200 = COORDINATED_UNIVERSAL_TIME_OFFSET ( 1, 0, .AHEAD. ) ;
#201 = APPROVAL_PERSON_ORGANIZATION ( #202, #402, #39 ) ;
#202 = PERSON_AND_ORGANIZATION ( #404, #204 ) ;
#203 = PERSON_AND_ORGANIZATION ( #404, #204 ) ;
#204 = ORGANIZATION ( 'NON SPECIFICATO', 'NON SPECIFICATO', '' ) ;
#205 = SHAPE_DEFINITION_REPRESENTATION ( #159, #406 ) ;
#206 = CIRCLE ( 'NONE', #400, 6.499999999999996400 ) ;
#207 = CIRCLE ( 'NONE', #398, 6.899999999999996800 ) ;
#208 = CIRCLE ( 'NONE', #396, 6.899999999999996800 ) ;
#209 = CIRCLE ( 'NONE', #397, 8.499999999999996400 ) ;
#210 = CIRCLE ( 'NONE', #395, 6.499999999999996400 ) ;
#211 = CIRCLE ( 'NONE', #394, 33.00000000000000000 ) ;
#212 = CIRCLE ( 'NONE', #401, 6.599999999999997000 ) ;
#213 = VECTOR ( 'NONE', #20, 1000.000000000000000 ) ;
#214 = CIRCLE ( 'NONE', #391, 33.00000000000000000 ) ;
#215 = CIRCLE ( 'NONE', #392, 8.499999999999996400 ) ;
#216 = VECTOR ( 'NONE', #29, 1000.000000000000000 ) ;
#217 = CIRCLE ( 'NONE', #390, 6.899999999999996800 ) ;
#218 = LINE ( 'NONE', #9, #213 ) ;
#219 = LINE ( 'NONE', #13, #216 ) ;
#220 = CIRCLE ( 'NONE', #389, 32.60000000000000100 ) ;
#221 = VECTOR ( 'NONE', #42, 1000.000000000000000 ) ;
#222 = CIRCLE ( 'NONE', #388, 32.60000000000000100 ) ;
#223 = LINE ( 'NONE', #45, #221 ) ;
#224 = CIRCLE ( 'NONE', #346, 6.499999999999996400 ) ;
#225 = VECTOR ( 'NONE', #62, 1000.000000000000000 ) ;
#226 = CIRCLE ( 'NONE', #387, 6.499999999999996400 ) ;
#227 = EDGE_LOOP ( 'NONE', ( #304, #305, #306, #308 ) ) ;
#228 = VECTOR ( 'NONE', #85, 999.9999999999998900 ) ;
#229 = CIRCLE ( 'NONE', #345, 6.499999999999996400 ) ;
#230 = EDGE_LOOP ( 'NONE', ( #323, #322, #327, #326 ) ) ;
#231 = LINE ( 'NONE', #89, #241 ) ;
#232 = CONICAL_SURFACE ( 'NONE', #339, 6.899999999999996800, 0.7853981633974497200 ) ;
#233 = LINE ( 'NONE', #75, #228 ) ;
#234 = CONICAL_SURFACE ( 'NONE', #356, 6.899999999999996800, 0.7853981633974497200 ) ;
#235 = CIRCLE ( 'NONE', #329, 6.899999999999996800 ) ;
#236 = CIRCLE ( 'NONE', #347, 6.599999999999997000 ) ;
#237 = LINE ( 'NONE', #78, #225 ) ;
#238 = FACE_OUTER_BOUND ( 'NONE', #230, .T. ) ;
#239 = FACE_OUTER_BOUND ( 'NONE', #296, .T. ) ;
#240 = CYLINDRICAL_SURFACE ( 'NONE', #348, 6.899999999999996800 ) ;
#241 = VECTOR ( 'NONE', #93, 999.9999999999998900 ) ;
#242 = CYLINDRICAL_SURFACE ( 'NONE', #350, 6.499999999999996400 ) ;
#243 = SPHERICAL_SURFACE ( 'NONE', #351, 33.00000000000000000 ) ;
#244 = VERTEX_POINT ( 'NONE', #108 ) ;
#245 = FACE_OUTER_BOUND ( 'NONE', #163, .T. ) ;
#246 = FACE_OUTER_BOUND ( 'NONE', #227, .T. ) ;
#247 = FACE_OUTER_BOUND ( 'NONE', #167, .T. ) ;
#248 = FACE_OUTER_BOUND ( 'NONE', #294, .T. ) ;
#249 = CYLINDRICAL_SURFACE ( 'NONE', #354, 6.899999999999996800 ) ;
#250 = SPHERICAL_SURFACE ( 'NONE', #352, 32.60000000000000100 ) ;
#251 = CYLINDRICAL_SURFACE ( 'NONE', #355, 6.499999999999996400 ) ;
#252 = CIRCLE ( 'NONE', #386, 6.499999999999996400 ) ;
#253 = FACE_OUTER_BOUND ( 'NONE', #312, .T. ) ;
#254 = FACE_OUTER_BOUND ( 'NONE', #258, .T. ) ;
#255 = FACE_OUTER_BOUND ( 'NONE', #328, .T. ) ;
#256 = FACE_BOUND ( 'NONE', #166, .T. ) ;
#257 = SPHERICAL_SURFACE ( 'NONE', #357, 33.00000000000000000 ) ;
#258 = EDGE_LOOP ( 'NONE', ( #277, #278, #279, #280 ) ) ;
#259 = FACE_OUTER_BOUND ( 'NONE', #162, .T. ) ;
#260 = SPHERICAL_SURFACE ( 'NONE', #358, 32.60000000000000100 ) ;
#261 = FACE_OUTER_BOUND ( 'NONE', #161, .T. ) ;
#262 = ORIENTED_EDGE ( 'NONE', *, *, #365, .T. ) ;
#263 = ORIENTED_EDGE ( 'NONE', *, *, #364, .F. ) ;
#264 = ORIENTED_EDGE ( 'NONE', *, *, #360, .F. ) ;
#265 = FACE_BOUND ( 'NONE', #165, .T. ) ;
#266 = ORIENTED_EDGE ( 'NONE', *, *, #363, .F. ) ;
#267 = VERTEX_POINT ( 'NONE', #103 ) ;
#268 = ORIENTED_EDGE ( 'NONE', *, *, #362, .F. ) ;
#269 = ORIENTED_EDGE ( 'NONE', *, *, #366, .T. ) ;
#270 = ORIENTED_EDGE ( 'NONE', *, *, #367, .T. ) ;
#271 = ORIENTED_EDGE ( 'NONE', *, *, #368, .T. ) ;
#272 = ORIENTED_EDGE ( 'NONE', *, *, #369, .F. ) ;
#273 = ORIENTED_EDGE ( 'NONE', *, *, #370, .F. ) ;
#274 = ORIENTED_EDGE ( 'NONE', *, *, #371, .T. ) ;
#275 = ORIENTED_EDGE ( 'NONE', *, *, #372, .F. ) ;
#276 = ORIENTED_EDGE ( 'NONE', *, *, #367, .F. ) ;
#277 = ORIENTED_EDGE ( 'NONE', *, *, #360, .T. ) ;
#278 = ORIENTED_EDGE ( 'NONE', *, *, #373, .T. ) ;
#279 = ORIENTED_EDGE ( 'NONE', *, *, #374, .F. ) ;
#280 = ORIENTED_EDGE ( 'NONE', *, *, #375, .F. ) ;
#281 = ORIENTED_EDGE ( 'NONE', *, *, #376, .T. ) ;
#282 = ORIENTED_EDGE ( 'NONE', *, *, #377, .T. ) ;
#283 = VERTEX_POINT ( 'NONE', #102 ) ;
#284 = ORIENTED_EDGE ( 'NONE', *, *, #378, .F. ) ;
#285 = VERTEX_POINT ( 'NONE', #105 ) ;
#286 = ORIENTED_EDGE ( 'NONE', *, *, #379, .T. ) ;
#287 = ORIENTED_EDGE ( 'NONE', *, *, #364, .T. ) ;
#288 = VERTEX_POINT ( 'NONE', #113 ) ;
#289 = ORIENTED_EDGE ( 'NONE', *, *, #380, .T. ) ;
#290 = ORIENTED_EDGE ( 'NONE', *, *, #362, .T. ) ;
#291 = VERTEX_POINT ( 'NONE', #107 ) ;
#292 = ORIENTED_EDGE ( 'NONE', *, *, #377, .F. ) ;
#293 = ORIENTED_EDGE ( 'NONE', *, *, #381, .T. ) ;
#294 = EDGE_LOOP ( 'NONE', ( #301, #303 ) ) ;
#295 = VERTEX_POINT ( 'NONE', #101 ) ;
#296 = EDGE_LOOP ( 'NONE', ( #263, #262, #264, #266 ) ) ;
#297 = ORIENTED_EDGE ( 'NONE', *, *, #378, .T. ) ;
#298 = ORIENTED_EDGE ( 'NONE', *, *, #374, .T. ) ;
#299 = VERTEX_POINT ( 'NONE', #100 ) ;
#300 = ORIENTED_EDGE ( 'NONE', *, *, #382, .T. ) ;
#301 = ORIENTED_EDGE ( 'NONE', *, *, #376, .F. ) ;
#302 = FACE_OUTER_BOUND ( 'NONE', #168, .T. ) ;
#303 = ORIENTED_EDGE ( 'NONE', *, *, #381, .F. ) ;
#304 = ORIENTED_EDGE ( 'NONE', *, *, #373, .F. ) ;
#305 = ORIENTED_EDGE ( 'NONE', *, *, #383, .T. ) ;
#306 = ORIENTED_EDGE ( 'NONE', *, *, #375, .T. ) ;
#307 = VERTEX_POINT ( 'NONE', #116 ) ;
#308 = ORIENTED_EDGE ( 'NONE', *, *, #382, .F. ) ;
#309 = VERTEX_POINT ( 'NONE', #99 ) ;
#310 = ORIENTED_EDGE ( 'NONE', *, *, #371, .F. ) ;
#311 = ORIENTED_EDGE ( 'NONE', *, *, #384, .F. ) ;
#312 = EDGE_LOOP ( 'NONE', ( #268, #269, #270, #271, #272 ) ) ;
#313 = VERTEX_POINT ( 'NONE', #98 ) ;
#314 = ORIENTED_EDGE ( 'NONE', *, *, #368, .F. ) ;
#315 = VERTEX_POINT ( 'NONE', #97 ) ;
#316 = ORIENTED_EDGE ( 'NONE', *, *, #372, .T. ) ;
#317 = ORIENTED_EDGE ( 'NONE', *, *, #366, .F. ) ;
#318 = ORIENTED_EDGE ( 'NONE', *, *, #380, .F. ) ;
#319 = ORIENTED_EDGE ( 'NONE', *, *, #369, .T. ) ;
#320 = ORIENTED_EDGE ( 'NONE', *, *, #384, .T. ) ;
#321 = ORIENTED_EDGE ( 'NONE', *, *, #370, .T. ) ;
#322 = ORIENTED_EDGE ( 'NONE', *, *, #379, .F. ) ;
#323 = ORIENTED_EDGE ( 'NONE', *, *, #365, .F. ) ;
#324 = VERTEX_POINT ( 'NONE', #95 ) ;
#325 = VERTEX_POINT ( 'NONE', #96 ) ;
#326 = ORIENTED_EDGE ( 'NONE', *, *, #383, .F. ) ;
#327 = ORIENTED_EDGE ( 'NONE', *, *, #363, .T. ) ;
#328 = EDGE_LOOP ( 'NONE', ( #281, #282, #284 ) ) ;
#329 = AXIS2_PLACEMENT_3D ( 'NONE', #92, #91, #90 ) ;
#330 = PRODUCT_RELATED_PRODUCT_CATEGORY ( 'detail', '', ( #403 ) ) ;
#331 = CC_DESIGN_SECURITY_CLASSIFICATION ( #336, ( #338 ) ) ;
#332 = CC_DESIGN_APPROVAL ( #333, ( #336 ) ) ;
#333 = APPROVAL ( #25, 'NON SPECIFICATO' ) ;
#334 = CC_DESIGN_DATE_AND_TIME_ASSIGNMENT ( #177, #26, ( #336 ) ) ;
#335 = CC_DESIGN_PERSON_AND_ORGANIZATION_ASSIGNMENT ( #181, #27, ( #336 ) ) ;
#336 = SECURITY_CLASSIFICATION ( '', '', #28 ) ;
#337 = CC_DESIGN_PERSON_AND_ORGANIZATION_ASSIGNMENT ( #182, #30, ( #338 ) ) ;
#338 = PRODUCT_DEFINITION_FORMATION_WITH_SPECIFIED_SOURCE ( 'TUTTO', '', #403, .NOT_KNOWN. ) ;
#339 = AXIS2_PLACEMENT_3D ( 'NONE', #115, #118, #121 ) ;
#340 = CC_DESIGN_APPROVAL ( #402, ( #385 ) ) ;
#341 = CC_DESIGN_PERSON_AND_ORGANIZATION_ASSIGNMENT ( #183, #31, ( #338 ) ) ;
#342 = APPROVAL ( #35, 'NON SPECIFICATO' ) ;
#343 = CC_DESIGN_PERSON_AND_ORGANIZATION_ASSIGNMENT ( #195, #38, ( #385 ) ) ;
#344 = CC_DESIGN_DATE_AND_TIME_ASSIGNMENT ( #191, #37, ( #385 ) ) ;
#345 = AXIS2_PLACEMENT_3D ( 'NONE', #36, #34, #33 ) ;
#346 = AXIS2_PLACEMENT_3D ( 'NONE', #24, #22, #21 ) ;
#347 = AXIS2_PLACEMENT_3D ( 'NONE', #71, #69, #66 ) ;
#348 = AXIS2_PLACEMENT_3D ( 'NONE', #127, #129, #131 ) ;
#349 = CC_DESIGN_APPROVAL ( #342, ( #338 ) ) ;
#350 = AXIS2_PLACEMENT_3D ( 'NONE', #130, #134, #110 ) ;
#351 = AXIS2_PLACEMENT_3D ( 'NONE', #125, #128, #122 ) ;
#352 = AXIS2_PLACEMENT_3D ( 'NONE', #137, #142, #133 ) ;
#353 = AXIS2_PLACEMENT_3D ( 'NONE', #136, #140, #139 ) ;
#354 = AXIS2_PLACEMENT_3D ( 'NONE', #94, #81, #138 ) ;
#355 = AXIS2_PLACEMENT_3D ( 'NONE', #126, #117, #135 ) ;
#356 = AXIS2_PLACEMENT_3D ( 'NONE', #120, #123, #124 ) ;
#357 = AXIS2_PLACEMENT_3D ( 'NONE', #106, #104, #83 ) ;
#358 = AXIS2_PLACEMENT_3D ( 'NONE', #132, #119, #114 ) ;
#359 = AXIS2_PLACEMENT_3D ( 'NONE', #112, #144, #141 ) ;
#360 = EDGE_CURVE ( 'NONE', #285, #307, #235, .T. ) ;
#361 = AXIS2_PLACEMENT_3D ( 'NONE', #60, #48, #47 ) ;
#362 = EDGE_CURVE ( 'NONE', #324, #288, #252, .T. ) ;
#363 = EDGE_CURVE ( 'NONE', #313, #285, #231, .T. ) ;
#364 = EDGE_CURVE ( 'NONE', #295, #313, #236, .T. ) ;
#365 = EDGE_CURVE ( 'NONE', #295, #307, #233, .T. ) ;
#366 = EDGE_CURVE ( 'NONE', #324, #160, #237, .T. ) ;
#367 = EDGE_CURVE ( 'NONE', #160, #291, #229, .T. ) ;
#368 = EDGE_CURVE ( 'NONE', #291, #299, #224, .T. ) ;
#369 = EDGE_CURVE ( 'NONE', #288, #299, #223, .T. ) ;
#370 = EDGE_CURVE ( 'NONE', #244, #160, #226, .T. ) ;
#371 = EDGE_CURVE ( 'NONE', #244, #315, #220, .T. ) ;
#372 = EDGE_CURVE ( 'NONE', #291, #315, #222, .T. ) ;
#373 = EDGE_CURVE ( 'NONE', #307, #309, #219, .T. ) ;
#374 = EDGE_CURVE ( 'NONE', #325, #309, #217, .T. ) ;
#375 = EDGE_CURVE ( 'NONE', #285, #325, #218, .T. ) ;
#376 = EDGE_CURVE ( 'NONE', #283, #169, #215, .T. ) ;
#377 = EDGE_CURVE ( 'NONE', #169, #267, #214, .T. ) ;
#378 = EDGE_CURVE ( 'NONE', #283, #267, #211, .T. ) ;
#379 = EDGE_CURVE ( 'NONE', #313, #295, #212, .T. ) ;
#380 = EDGE_CURVE ( 'NONE', #288, #324, #210, .T. ) ;
#381 = EDGE_CURVE ( 'NONE', #169, #283, #209, .T. ) ;
#382 = EDGE_CURVE ( 'NONE', #309, #325, #208, .T. ) ;
#383 = EDGE_CURVE ( 'NONE', #307, #285, #207, .T. ) ;
#384 = EDGE_CURVE ( 'NONE', #299, #244, #206, .T. ) ;
#385 = PRODUCT_DEFINITION ( 'NON CONOSCIUTO', '', #338, #158 ) ;
#386 = AXIS2_PLACEMENT_3D ( 'NONE', #88, #87, #86 ) ;
#387 = AXIS2_PLACEMENT_3D ( 'NONE', #19, #18, #17 ) ;
#388 = AXIS2_PLACEMENT_3D ( 'NONE', #12, #11, #10 ) ;
#389 = AXIS2_PLACEMENT_3D ( 'NONE', #16, #15, #14 ) ;
#390 = AXIS2_PLACEMENT_3D ( 'NONE', #8, #7, #6 ) ;
#391 = AXIS2_PLACEMENT_3D ( 'NONE', #2, #1, #84 ) ;
#392 = AXIS2_PLACEMENT_3D ( 'NONE', #5, #4, #3 ) ;
#393 = CC_DESIGN_PERSON_AND_ORGANIZATION_ASSIGNMENT ( #203, #44, ( #403 ) ) ;
#394 = AXIS2_PLACEMENT_3D ( 'NONE', #82, #80, #79 ) ;
#395 = AXIS2_PLACEMENT_3D ( 'NONE', #73, #72, #70 ) ;
#396 = AXIS2_PLACEMENT_3D ( 'NONE', #64, #63, #61 ) ;
#397 = AXIS2_PLACEMENT_3D ( 'NONE', #68, #67, #65 ) ;
#398 = AXIS2_PLACEMENT_3D ( 'NONE', #59, #58, #57 ) ;
#399 =( GEOMETRIC_REPRESENTATION_CONTEXT ( 3 ) GLOBAL_UNCERTAINTY_ASSIGNED_CONTEXT ( ( #405 ) ) GLOBAL_UNIT_ASSIGNED_CONTEXT ( ( #53, #52, #51 ) ) REPRESENTATION_CONTEXT ( 'NONE', 'WORKASPACE' ) );
#400 = AXIS2_PLACEMENT_3D ( 'NONE', #56, #55, #54 ) ;
#401 = AXIS2_PLACEMENT_3D ( 'NONE', #77, #76, #74 ) ;
#402 = APPROVAL ( #40, 'NON SPECIFICATO' ) ;
#403 = PRODUCT ( '1.CAP.013', '1.CAP.013', '', ( #46 ) ) ;
#404 = PERSON ( 'NON SPECIFICATO', 'NON SPECIFICATO', 'NON SPECIFICATO', ('NON SPECIFICATO'), ('NON SPECIFICATO'), ('NON SPECIFICATO') ) ;
#405 = UNCERTAINTY_MEASURE_WITH_UNIT (LENGTH_MEASURE( 1.000000000000000100E-005 ), #53, 'distance_accuracy_value', 'NONE');
#406 = ADVANCED_BREP_SHAPE_REPRESENTATION ( '1.CAP.013', ( #407, #361 ), #399 ) ;
#407 = MANIFOLD_SOLID_BREP ( 'Smusso1', #164 ) ;
ENDSEC;
END-ISO-10303-21;
