ISO-10303-21;
HEADER;
/* Generated by software containing ST-Developer
 * from STEP Tools, Inc. (www.steptools.com) 
 */

FILE_DESCRIPTION(
/* description */ (''),
/* implementation_level */ '2;1');

FILE_NAME(
/* name */ 
'Z:/Modular Solution/A-Profile System/Parts/60 Series/61-030-0/CAD/61-
030-1.step',
/* time_stamp */ '2021-09-27T09:10:44-04:00',
/* author */ (''),
/* organization */ (''),
/* preprocessor_version */ 'ST-DEVELOPER v18.1',
/* originating_system */ 'Autodesk Translation Framework v10.10.0.1391',

/* authorisation */ '');

FILE_SCHEMA (('AUTOMOTIVE_DESIGN { 1 0 10303 214 3 1 1 }'));
ENDSEC;

DATA;
#10=MECHANICAL_DESIGN_GEOMETRIC_PRESENTATION_REPRESENTATION('',(#13),#521);
#11=SHAPE_REPRESENTATION_RELATIONSHIP('SRR','None',#528,#12);
#12=ADVANCED_BREP_SHAPE_REPRESENTATION('',(#14),#520);
#13=STYLED_ITEM('',(#537),#14);
#14=MANIFOLD_SOLID_BREP('Body1',#309);
#15=CIRCLE('',#326,0.86);
#16=CIRCLE('',#327,0.86);
#17=CIRCLE('',#332,0.86);
#18=CIRCLE('',#333,0.86);
#19=CIRCLE('',#338,1.37708333333332);
#20=CIRCLE('',#339,1.37708333333332);
#21=CIRCLE('',#342,1.37708333333332);
#22=CIRCLE('',#343,1.37708333333332);
#23=CYLINDRICAL_SURFACE('',#325,0.86);
#24=CYLINDRICAL_SURFACE('',#331,0.86);
#25=CYLINDRICAL_SURFACE('',#337,1.37708333333332);
#26=CYLINDRICAL_SURFACE('',#341,1.37708333333332);
#27=FACE_OUTER_BOUND('',#43,.T.);
#28=FACE_OUTER_BOUND('',#44,.T.);
#29=FACE_OUTER_BOUND('',#45,.T.);
#30=FACE_OUTER_BOUND('',#46,.T.);
#31=FACE_OUTER_BOUND('',#47,.T.);
#32=FACE_OUTER_BOUND('',#48,.T.);
#33=FACE_OUTER_BOUND('',#49,.T.);
#34=FACE_OUTER_BOUND('',#50,.T.);
#35=FACE_OUTER_BOUND('',#51,.T.);
#36=FACE_OUTER_BOUND('',#52,.T.);
#37=FACE_OUTER_BOUND('',#53,.T.);
#38=FACE_OUTER_BOUND('',#54,.T.);
#39=FACE_OUTER_BOUND('',#55,.T.);
#40=FACE_OUTER_BOUND('',#56,.T.);
#41=FACE_OUTER_BOUND('',#57,.T.);
#42=FACE_OUTER_BOUND('',#58,.T.);
#43=EDGE_LOOP('',(#197,#198,#199,#200));
#44=EDGE_LOOP('',(#201,#202,#203,#204));
#45=EDGE_LOOP('',(#205,#206,#207,#208));
#46=EDGE_LOOP('',(#209,#210,#211,#212));
#47=EDGE_LOOP('',(#213,#214,#215,#216));
#48=EDGE_LOOP('',(#217,#218,#219,#220));
#49=EDGE_LOOP('',(#221,#222,#223,#224));
#50=EDGE_LOOP('',(#225,#226,#227,#228));
#51=EDGE_LOOP('',(#229,#230,#231,#232));
#52=EDGE_LOOP('',(#233,#234,#235,#236));
#53=EDGE_LOOP('',(#237,#238,#239,#240));
#54=EDGE_LOOP('',(#241,#242,#243,#244));
#55=EDGE_LOOP('',(#245,#246,#247,#248));
#56=EDGE_LOOP('',(#249,#250,#251,#252));
#57=EDGE_LOOP('',(#253,#254,#255,#256,#257,#258,#259,#260,#261,#262,#263,
#264,#265,#266));
#58=EDGE_LOOP('',(#267,#268,#269,#270,#271,#272,#273,#274,#275,#276,#277,
#278,#279,#280));
#59=LINE('',#435,#93);
#60=LINE('',#437,#94);
#61=LINE('',#439,#95);
#62=LINE('',#440,#96);
#63=LINE('',#443,#97);
#64=LINE('',#445,#98);
#65=LINE('',#446,#99);
#66=LINE('',#452,#100);
#67=LINE('',#455,#101);
#68=LINE('',#457,#102);
#69=LINE('',#458,#103);
#70=LINE('',#461,#104);
#71=LINE('',#463,#105);
#72=LINE('',#464,#106);
#73=LINE('',#467,#107);
#74=LINE('',#469,#108);
#75=LINE('',#470,#109);
#76=LINE('',#476,#110);
#77=LINE('',#479,#111);
#78=LINE('',#481,#112);
#79=LINE('',#482,#113);
#80=LINE('',#485,#114);
#81=LINE('',#487,#115);
#82=LINE('',#488,#116);
#83=LINE('',#491,#117);
#84=LINE('',#493,#118);
#85=LINE('',#494,#119);
#86=LINE('',#500,#120);
#87=LINE('',#503,#121);
#88=LINE('',#505,#122);
#89=LINE('',#506,#123);
#90=LINE('',#512,#124);
#91=LINE('',#514,#125);
#92=LINE('',#515,#126);
#93=VECTOR('',#351,10.);
#94=VECTOR('',#352,10.);
#95=VECTOR('',#353,10.);
#96=VECTOR('',#354,10.);
#97=VECTOR('',#357,10.);
#98=VECTOR('',#358,10.);
#99=VECTOR('',#359,10.);
#100=VECTOR('',#366,10.);
#101=VECTOR('',#369,10.);
#102=VECTOR('',#370,10.);
#103=VECTOR('',#371,10.);
#104=VECTOR('',#374,10.);
#105=VECTOR('',#375,10.);
#106=VECTOR('',#376,10.);
#107=VECTOR('',#379,10.);
#108=VECTOR('',#380,10.);
#109=VECTOR('',#381,10.);
#110=VECTOR('',#388,10.);
#111=VECTOR('',#391,10.);
#112=VECTOR('',#392,10.);
#113=VECTOR('',#393,10.);
#114=VECTOR('',#396,10.);
#115=VECTOR('',#397,10.);
#116=VECTOR('',#398,10.);
#117=VECTOR('',#401,10.);
#118=VECTOR('',#402,10.);
#119=VECTOR('',#403,10.);
#120=VECTOR('',#410,10.);
#121=VECTOR('',#413,10.);
#122=VECTOR('',#414,10.);
#123=VECTOR('',#415,10.);
#124=VECTOR('',#422,10.);
#125=VECTOR('',#425,10.);
#126=VECTOR('',#426,10.);
#127=VERTEX_POINT('',#433);
#128=VERTEX_POINT('',#434);
#129=VERTEX_POINT('',#436);
#130=VERTEX_POINT('',#438);
#131=VERTEX_POINT('',#442);
#132=VERTEX_POINT('',#444);
#133=VERTEX_POINT('',#448);
#134=VERTEX_POINT('',#450);
#135=VERTEX_POINT('',#454);
#136=VERTEX_POINT('',#456);
#137=VERTEX_POINT('',#460);
#138=VERTEX_POINT('',#462);
#139=VERTEX_POINT('',#466);
#140=VERTEX_POINT('',#468);
#141=VERTEX_POINT('',#472);
#142=VERTEX_POINT('',#474);
#143=VERTEX_POINT('',#478);
#144=VERTEX_POINT('',#480);
#145=VERTEX_POINT('',#484);
#146=VERTEX_POINT('',#486);
#147=VERTEX_POINT('',#490);
#148=VERTEX_POINT('',#492);
#149=VERTEX_POINT('',#496);
#150=VERTEX_POINT('',#498);
#151=VERTEX_POINT('',#502);
#152=VERTEX_POINT('',#504);
#153=VERTEX_POINT('',#508);
#154=VERTEX_POINT('',#510);
#155=EDGE_CURVE('',#127,#128,#59,.T.);
#156=EDGE_CURVE('',#127,#129,#60,.T.);
#157=EDGE_CURVE('',#130,#129,#61,.T.);
#158=EDGE_CURVE('',#128,#130,#62,.T.);
#159=EDGE_CURVE('',#128,#131,#63,.T.);
#160=EDGE_CURVE('',#132,#130,#64,.T.);
#161=EDGE_CURVE('',#131,#132,#65,.T.);
#162=EDGE_CURVE('',#133,#131,#15,.T.);
#163=EDGE_CURVE('',#134,#132,#16,.T.);
#164=EDGE_CURVE('',#133,#134,#66,.T.);
#165=EDGE_CURVE('',#135,#133,#67,.T.);
#166=EDGE_CURVE('',#136,#134,#68,.T.);
#167=EDGE_CURVE('',#135,#136,#69,.T.);
#168=EDGE_CURVE('',#135,#137,#70,.T.);
#169=EDGE_CURVE('',#138,#136,#71,.T.);
#170=EDGE_CURVE('',#137,#138,#72,.T.);
#171=EDGE_CURVE('',#137,#139,#73,.T.);
#172=EDGE_CURVE('',#140,#138,#74,.T.);
#173=EDGE_CURVE('',#139,#140,#75,.T.);
#174=EDGE_CURVE('',#141,#139,#17,.T.);
#175=EDGE_CURVE('',#142,#140,#18,.T.);
#176=EDGE_CURVE('',#141,#142,#76,.T.);
#177=EDGE_CURVE('',#143,#141,#77,.T.);
#178=EDGE_CURVE('',#144,#142,#78,.T.);
#179=EDGE_CURVE('',#143,#144,#79,.T.);
#180=EDGE_CURVE('',#145,#143,#80,.T.);
#181=EDGE_CURVE('',#146,#144,#81,.T.);
#182=EDGE_CURVE('',#145,#146,#82,.T.);
#183=EDGE_CURVE('',#147,#145,#83,.T.);
#184=EDGE_CURVE('',#148,#146,#84,.T.);
#185=EDGE_CURVE('',#147,#148,#85,.T.);
#186=EDGE_CURVE('',#149,#147,#19,.T.);
#187=EDGE_CURVE('',#150,#148,#20,.T.);
#188=EDGE_CURVE('',#149,#150,#86,.T.);
#189=EDGE_CURVE('',#149,#151,#87,.T.);
#190=EDGE_CURVE('',#152,#150,#88,.T.);
#191=EDGE_CURVE('',#151,#152,#89,.T.);
#192=EDGE_CURVE('',#153,#151,#21,.T.);
#193=EDGE_CURVE('',#154,#152,#22,.T.);
#194=EDGE_CURVE('',#153,#154,#90,.T.);
#195=EDGE_CURVE('',#153,#127,#91,.T.);
#196=EDGE_CURVE('',#129,#154,#92,.T.);
#197=ORIENTED_EDGE('',*,*,#155,.F.);
#198=ORIENTED_EDGE('',*,*,#156,.T.);
#199=ORIENTED_EDGE('',*,*,#157,.F.);
#200=ORIENTED_EDGE('',*,*,#158,.F.);
#201=ORIENTED_EDGE('',*,*,#159,.F.);
#202=ORIENTED_EDGE('',*,*,#158,.T.);
#203=ORIENTED_EDGE('',*,*,#160,.F.);
#204=ORIENTED_EDGE('',*,*,#161,.F.);
#205=ORIENTED_EDGE('',*,*,#162,.T.);
#206=ORIENTED_EDGE('',*,*,#161,.T.);
#207=ORIENTED_EDGE('',*,*,#163,.F.);
#208=ORIENTED_EDGE('',*,*,#164,.F.);
#209=ORIENTED_EDGE('',*,*,#165,.T.);
#210=ORIENTED_EDGE('',*,*,#164,.T.);
#211=ORIENTED_EDGE('',*,*,#166,.F.);
#212=ORIENTED_EDGE('',*,*,#167,.F.);
#213=ORIENTED_EDGE('',*,*,#168,.F.);
#214=ORIENTED_EDGE('',*,*,#167,.T.);
#215=ORIENTED_EDGE('',*,*,#169,.F.);
#216=ORIENTED_EDGE('',*,*,#170,.F.);
#217=ORIENTED_EDGE('',*,*,#171,.F.);
#218=ORIENTED_EDGE('',*,*,#170,.T.);
#219=ORIENTED_EDGE('',*,*,#172,.F.);
#220=ORIENTED_EDGE('',*,*,#173,.F.);
#221=ORIENTED_EDGE('',*,*,#174,.T.);
#222=ORIENTED_EDGE('',*,*,#173,.T.);
#223=ORIENTED_EDGE('',*,*,#175,.F.);
#224=ORIENTED_EDGE('',*,*,#176,.F.);
#225=ORIENTED_EDGE('',*,*,#177,.T.);
#226=ORIENTED_EDGE('',*,*,#176,.T.);
#227=ORIENTED_EDGE('',*,*,#178,.F.);
#228=ORIENTED_EDGE('',*,*,#179,.F.);
#229=ORIENTED_EDGE('',*,*,#180,.T.);
#230=ORIENTED_EDGE('',*,*,#179,.T.);
#231=ORIENTED_EDGE('',*,*,#181,.F.);
#232=ORIENTED_EDGE('',*,*,#182,.F.);
#233=ORIENTED_EDGE('',*,*,#183,.T.);
#234=ORIENTED_EDGE('',*,*,#182,.T.);
#235=ORIENTED_EDGE('',*,*,#184,.F.);
#236=ORIENTED_EDGE('',*,*,#185,.F.);
#237=ORIENTED_EDGE('',*,*,#186,.T.);
#238=ORIENTED_EDGE('',*,*,#185,.T.);
#239=ORIENTED_EDGE('',*,*,#187,.F.);
#240=ORIENTED_EDGE('',*,*,#188,.F.);
#241=ORIENTED_EDGE('',*,*,#189,.F.);
#242=ORIENTED_EDGE('',*,*,#188,.T.);
#243=ORIENTED_EDGE('',*,*,#190,.F.);
#244=ORIENTED_EDGE('',*,*,#191,.F.);
#245=ORIENTED_EDGE('',*,*,#192,.T.);
#246=ORIENTED_EDGE('',*,*,#191,.T.);
#247=ORIENTED_EDGE('',*,*,#193,.F.);
#248=ORIENTED_EDGE('',*,*,#194,.F.);
#249=ORIENTED_EDGE('',*,*,#195,.F.);
#250=ORIENTED_EDGE('',*,*,#194,.T.);
#251=ORIENTED_EDGE('',*,*,#196,.F.);
#252=ORIENTED_EDGE('',*,*,#156,.F.);
#253=ORIENTED_EDGE('',*,*,#196,.T.);
#254=ORIENTED_EDGE('',*,*,#193,.T.);
#255=ORIENTED_EDGE('',*,*,#190,.T.);
#256=ORIENTED_EDGE('',*,*,#187,.T.);
#257=ORIENTED_EDGE('',*,*,#184,.T.);
#258=ORIENTED_EDGE('',*,*,#181,.T.);
#259=ORIENTED_EDGE('',*,*,#178,.T.);
#260=ORIENTED_EDGE('',*,*,#175,.T.);
#261=ORIENTED_EDGE('',*,*,#172,.T.);
#262=ORIENTED_EDGE('',*,*,#169,.T.);
#263=ORIENTED_EDGE('',*,*,#166,.T.);
#264=ORIENTED_EDGE('',*,*,#163,.T.);
#265=ORIENTED_EDGE('',*,*,#160,.T.);
#266=ORIENTED_EDGE('',*,*,#157,.T.);
#267=ORIENTED_EDGE('',*,*,#195,.T.);
#268=ORIENTED_EDGE('',*,*,#155,.T.);
#269=ORIENTED_EDGE('',*,*,#159,.T.);
#270=ORIENTED_EDGE('',*,*,#162,.F.);
#271=ORIENTED_EDGE('',*,*,#165,.F.);
#272=ORIENTED_EDGE('',*,*,#168,.T.);
#273=ORIENTED_EDGE('',*,*,#171,.T.);
#274=ORIENTED_EDGE('',*,*,#174,.F.);
#275=ORIENTED_EDGE('',*,*,#177,.F.);
#276=ORIENTED_EDGE('',*,*,#180,.F.);
#277=ORIENTED_EDGE('',*,*,#183,.F.);
#278=ORIENTED_EDGE('',*,*,#186,.F.);
#279=ORIENTED_EDGE('',*,*,#189,.T.);
#280=ORIENTED_EDGE('',*,*,#192,.F.);
#281=PLANE('',#323);
#282=PLANE('',#324);
#283=PLANE('',#328);
#284=PLANE('',#329);
#285=PLANE('',#330);
#286=PLANE('',#334);
#287=PLANE('',#335);
#288=PLANE('',#336);
#289=PLANE('',#340);
#290=PLANE('',#344);
#291=PLANE('',#345);
#292=PLANE('',#346);
#293=ADVANCED_FACE('',(#27),#281,.T.);
#294=ADVANCED_FACE('',(#28),#282,.T.);
#295=ADVANCED_FACE('',(#29),#23,.T.);
#296=ADVANCED_FACE('',(#30),#283,.T.);
#297=ADVANCED_FACE('',(#31),#284,.T.);
#298=ADVANCED_FACE('',(#32),#285,.T.);
#299=ADVANCED_FACE('',(#33),#24,.T.);
#300=ADVANCED_FACE('',(#34),#286,.T.);
#301=ADVANCED_FACE('',(#35),#287,.T.);
#302=ADVANCED_FACE('',(#36),#288,.T.);
#303=ADVANCED_FACE('',(#37),#25,.T.);
#304=ADVANCED_FACE('',(#38),#289,.T.);
#305=ADVANCED_FACE('',(#39),#26,.T.);
#306=ADVANCED_FACE('',(#40),#290,.T.);
#307=ADVANCED_FACE('',(#41),#291,.T.);
#308=ADVANCED_FACE('',(#42),#292,.F.);
#309=CLOSED_SHELL('',(#293,#294,#295,#296,#297,#298,#299,#300,#301,#302,
#303,#304,#305,#306,#307,#308));
#310=DERIVED_UNIT_ELEMENT(#312,1.);
#311=DERIVED_UNIT_ELEMENT(#523,-3.);
#312=(
MASS_UNIT()
NAMED_UNIT(*)
SI_UNIT(.KILO.,.GRAM.)
);
#313=DERIVED_UNIT((#310,#311));
#314=MEASURE_REPRESENTATION_ITEM('density measure',
POSITIVE_RATIO_MEASURE(7850.),#313);
#315=PROPERTY_DEFINITION_REPRESENTATION(#320,#317);
#316=PROPERTY_DEFINITION_REPRESENTATION(#321,#318);
#317=REPRESENTATION('material name',(#319),#520);
#318=REPRESENTATION('density',(#314),#520);
#319=DESCRIPTIVE_REPRESENTATION_ITEM('Steel','Steel');
#320=PROPERTY_DEFINITION('material property','material name',#530);
#321=PROPERTY_DEFINITION('material property','density of part',#530);
#322=AXIS2_PLACEMENT_3D('placement',#431,#347,#348);
#323=AXIS2_PLACEMENT_3D('',#432,#349,#350);
#324=AXIS2_PLACEMENT_3D('',#441,#355,#356);
#325=AXIS2_PLACEMENT_3D('',#447,#360,#361);
#326=AXIS2_PLACEMENT_3D('',#449,#362,#363);
#327=AXIS2_PLACEMENT_3D('',#451,#364,#365);
#328=AXIS2_PLACEMENT_3D('',#453,#367,#368);
#329=AXIS2_PLACEMENT_3D('',#459,#372,#373);
#330=AXIS2_PLACEMENT_3D('',#465,#377,#378);
#331=AXIS2_PLACEMENT_3D('',#471,#382,#383);
#332=AXIS2_PLACEMENT_3D('',#473,#384,#385);
#333=AXIS2_PLACEMENT_3D('',#475,#386,#387);
#334=AXIS2_PLACEMENT_3D('',#477,#389,#390);
#335=AXIS2_PLACEMENT_3D('',#483,#394,#395);
#336=AXIS2_PLACEMENT_3D('',#489,#399,#400);
#337=AXIS2_PLACEMENT_3D('',#495,#404,#405);
#338=AXIS2_PLACEMENT_3D('',#497,#406,#407);
#339=AXIS2_PLACEMENT_3D('',#499,#408,#409);
#340=AXIS2_PLACEMENT_3D('',#501,#411,#412);
#341=AXIS2_PLACEMENT_3D('',#507,#416,#417);
#342=AXIS2_PLACEMENT_3D('',#509,#418,#419);
#343=AXIS2_PLACEMENT_3D('',#511,#420,#421);
#344=AXIS2_PLACEMENT_3D('',#513,#423,#424);
#345=AXIS2_PLACEMENT_3D('',#516,#427,#428);
#346=AXIS2_PLACEMENT_3D('',#517,#429,#430);
#347=DIRECTION('axis',(0.,0.,1.));
#348=DIRECTION('refdir',(1.,0.,0.));
#349=DIRECTION('center_axis',(-0.96546235727024,0.,0.260542581345531));
#350=DIRECTION('ref_axis',(0.260542581345531,0.,0.965462357270239));
#351=DIRECTION('',(-0.260542581345531,0.,-0.965462357270239));
#352=DIRECTION('',(0.,1.,0.));
#353=DIRECTION('',(0.260542581345531,0.,0.965462357270239));
#354=DIRECTION('',(0.,1.,0.));
#355=DIRECTION('center_axis',(-0.475478281829974,0.,0.879727459789687));
#356=DIRECTION('ref_axis',(0.879727459789687,0.,0.475478281829974));
#357=DIRECTION('',(-0.879727459789687,0.,-0.475478281829974));
#358=DIRECTION('',(0.879727459789687,0.,0.475478281829974));
#359=DIRECTION('',(0.,1.,0.));
#360=DIRECTION('center_axis',(0.,1.,0.));
#361=DIRECTION('ref_axis',(0.,0.,-1.));
#362=DIRECTION('center_axis',(0.,1.,0.));
#363=DIRECTION('ref_axis',(0.,0.,-1.));
#364=DIRECTION('center_axis',(0.,1.,0.));
#365=DIRECTION('ref_axis',(0.,0.,-1.));
#366=DIRECTION('',(0.,1.,0.));
#367=DIRECTION('center_axis',(0.96546235727024,0.,-0.26054258134553));
#368=DIRECTION('ref_axis',(-0.26054258134553,0.,-0.965462357270239));
#369=DIRECTION('',(-0.26054258134553,0.,-0.965462357270239));
#370=DIRECTION('',(-0.26054258134553,0.,-0.965462357270239));
#371=DIRECTION('',(0.,1.,0.));
#372=DIRECTION('center_axis',(0.,0.,-1.));
#373=DIRECTION('ref_axis',(-1.,0.,0.));
#374=DIRECTION('',(1.,0.,0.));
#375=DIRECTION('',(-1.,0.,0.));
#376=DIRECTION('',(0.,1.,0.));
#377=DIRECTION('center_axis',(-0.96546235727024,0.,-0.26054258134553));
#378=DIRECTION('ref_axis',(-0.26054258134553,0.,0.965462357270239));
#379=DIRECTION('',(0.26054258134553,0.,-0.965462357270239));
#380=DIRECTION('',(-0.26054258134553,0.,0.965462357270239));
#381=DIRECTION('',(0.,1.,0.));
#382=DIRECTION('center_axis',(0.,1.,0.));
#383=DIRECTION('ref_axis',(1.,0.,-1.61369625672261E-16));
#384=DIRECTION('center_axis',(0.,1.,0.));
#385=DIRECTION('ref_axis',(1.,0.,-1.61369625672261E-16));
#386=DIRECTION('center_axis',(0.,1.,0.));
#387=DIRECTION('ref_axis',(1.,0.,-1.61369625672261E-16));
#388=DIRECTION('',(0.,1.,0.));
#389=DIRECTION('center_axis',(0.475478281829974,0.,0.879727459789687));
#390=DIRECTION('ref_axis',(0.879727459789687,0.,-0.475478281829974));
#391=DIRECTION('',(0.879727459789687,0.,-0.475478281829974));
#392=DIRECTION('',(0.879727459789687,0.,-0.475478281829974));
#393=DIRECTION('',(0.,1.,0.));
#394=DIRECTION('center_axis',(0.96546235727024,0.,0.260542581345531));
#395=DIRECTION('ref_axis',(0.260542581345531,0.,-0.965462357270239));
#396=DIRECTION('',(0.260542581345531,0.,-0.965462357270239));
#397=DIRECTION('',(0.260542581345531,0.,-0.965462357270239));
#398=DIRECTION('',(0.,1.,0.));
#399=DIRECTION('center_axis',(0.701626857729352,0.,-0.712544561773392));
#400=DIRECTION('ref_axis',(-0.712544561773392,0.,-0.701626857729352));
#401=DIRECTION('',(-0.712544561773392,0.,-0.701626857729352));
#402=DIRECTION('',(-0.712544561773392,0.,-0.701626857729352));
#403=DIRECTION('',(0.,1.,0.));
#404=DIRECTION('center_axis',(0.,1.,0.));
#405=DIRECTION('ref_axis',(0.,0.,1.));
#406=DIRECTION('center_axis',(0.,1.,0.));
#407=DIRECTION('ref_axis',(0.,0.,1.));
#408=DIRECTION('center_axis',(0.,1.,0.));
#409=DIRECTION('ref_axis',(0.,0.,1.));
#410=DIRECTION('',(0.,1.,0.));
#411=DIRECTION('center_axis',(0.,0.,1.));
#412=DIRECTION('ref_axis',(1.,0.,0.));
#413=DIRECTION('',(-1.,0.,0.));
#414=DIRECTION('',(1.,0.,0.));
#415=DIRECTION('',(0.,1.,0.));
#416=DIRECTION('center_axis',(0.,1.,0.));
#417=DIRECTION('ref_axis',(-0.453857791225418,0.,0.891074130105899));
#418=DIRECTION('center_axis',(0.,1.,0.));
#419=DIRECTION('ref_axis',(-0.453857791225418,0.,0.891074130105899));
#420=DIRECTION('center_axis',(0.,1.,0.));
#421=DIRECTION('ref_axis',(-0.453857791225418,0.,0.891074130105899));
#422=DIRECTION('',(0.,1.,0.));
#423=DIRECTION('center_axis',(-0.701626857729352,0.,-0.712544561773392));
#424=DIRECTION('ref_axis',(-0.712544561773392,0.,0.701626857729352));
#425=DIRECTION('',(0.712544561773392,0.,-0.701626857729352));
#426=DIRECTION('',(-0.712544561773392,0.,0.701626857729352));
#427=DIRECTION('center_axis',(0.,1.,0.));
#428=DIRECTION('ref_axis',(1.,0.,0.));
#429=DIRECTION('center_axis',(0.,1.,0.));
#430=DIRECTION('ref_axis',(1.,0.,0.));
#431=CARTESIAN_POINT('',(0.,0.,0.));
#432=CARTESIAN_POINT('Origin',(-4.2128109013765,0.,0.961172641595252));
#433=CARTESIAN_POINT('',(-3.43118315733991,0.,3.85755971340597));
#434=CARTESIAN_POINT('',(-4.2128109013765,0.,0.961172641595252));
#435=CARTESIAN_POINT('',(-3.43118315733991,0.,3.85755971340597));
#436=CARTESIAN_POINT('',(-3.43118315733991,250.,3.85755971340597));
#437=CARTESIAN_POINT('',(-3.43118315733991,0.,3.85755971340597));
#438=CARTESIAN_POINT('',(-4.2128109013765,250.,0.961172641595252));
#439=CARTESIAN_POINT('',(-3.43118315733991,250.,3.85755971340597));
#440=CARTESIAN_POINT('',(-4.2128109013765,0.,0.961172641595252));
#441=CARTESIAN_POINT('Origin',(-4.4,0.,0.86));
#442=CARTESIAN_POINT('',(-4.4,0.,0.86));
#443=CARTESIAN_POINT('',(-4.2128109013765,0.,0.961172641595252));
#444=CARTESIAN_POINT('',(-4.4,250.,0.86));
#445=CARTESIAN_POINT('',(-4.2128109013765,250.,0.961172641595252));
#446=CARTESIAN_POINT('',(-4.4,0.,0.86));
#447=CARTESIAN_POINT('Origin',(-3.54,0.,0.86));
#448=CARTESIAN_POINT('',(-3.54,0.,0.));
#449=CARTESIAN_POINT('Origin',(-3.54,0.,0.86));
#450=CARTESIAN_POINT('',(-3.54,250.,0.));
#451=CARTESIAN_POINT('Origin',(-3.54,250.,0.86));
#452=CARTESIAN_POINT('',(-3.54,0.,0.));
#453=CARTESIAN_POINT('Origin',(-2.555,0.,3.65));
#454=CARTESIAN_POINT('',(-2.555,0.,3.65));
#455=CARTESIAN_POINT('',(-2.555,0.,3.65));
#456=CARTESIAN_POINT('',(-2.555,250.,3.65));
#457=CARTESIAN_POINT('',(-2.555,250.,3.65));
#458=CARTESIAN_POINT('',(-2.555,0.,3.65));
#459=CARTESIAN_POINT('Origin',(2.555,0.,3.65));
#460=CARTESIAN_POINT('',(2.555,0.,3.65));
#461=CARTESIAN_POINT('',(0.,0.,3.65));
#462=CARTESIAN_POINT('',(2.555,250.,3.65));
#463=CARTESIAN_POINT('',(0.,250.,3.65));
#464=CARTESIAN_POINT('',(2.555,0.,3.65));
#465=CARTESIAN_POINT('Origin',(3.54,0.,0.));
#466=CARTESIAN_POINT('',(3.54,0.,0.));
#467=CARTESIAN_POINT('',(2.555,0.,3.65));
#468=CARTESIAN_POINT('',(3.54,250.,0.));
#469=CARTESIAN_POINT('',(2.555,250.,3.65));
#470=CARTESIAN_POINT('',(3.54,0.,0.));
#471=CARTESIAN_POINT('Origin',(3.54,0.,0.86));
#472=CARTESIAN_POINT('',(4.4,0.,0.86));
#473=CARTESIAN_POINT('Origin',(3.54,0.,0.86));
#474=CARTESIAN_POINT('',(4.4,250.,0.86));
#475=CARTESIAN_POINT('Origin',(3.54,250.,0.86));
#476=CARTESIAN_POINT('',(4.4,0.,0.86));
#477=CARTESIAN_POINT('Origin',(4.2128109013765,0.,0.961172641595252));
#478=CARTESIAN_POINT('',(4.2128109013765,0.,0.961172641595252));
#479=CARTESIAN_POINT('',(4.2128109013765,0.,0.961172641595252));
#480=CARTESIAN_POINT('',(4.2128109013765,250.,0.961172641595252));
#481=CARTESIAN_POINT('',(4.2128109013765,250.,0.961172641595252));
#482=CARTESIAN_POINT('',(4.2128109013765,0.,0.961172641595252));
#483=CARTESIAN_POINT('Origin',(3.43118315733991,0.,3.85755971340597));
#484=CARTESIAN_POINT('',(3.43118315733991,0.,3.85755971340597));
#485=CARTESIAN_POINT('',(3.43118315733991,0.,3.85755971340597));
#486=CARTESIAN_POINT('',(3.43118315733991,250.,3.85755971340597));
#487=CARTESIAN_POINT('',(3.43118315733991,250.,3.85755971340597));
#488=CARTESIAN_POINT('',(3.43118315733991,0.,3.85755971340597));
#489=CARTESIAN_POINT('Origin',(4.5,0.,4.91));
#490=CARTESIAN_POINT('',(4.5,0.,4.91));
#491=CARTESIAN_POINT('',(4.5,0.,4.91));
#492=CARTESIAN_POINT('',(4.5,250.,4.91));
#493=CARTESIAN_POINT('',(4.5,250.,4.91));
#494=CARTESIAN_POINT('',(4.5,0.,4.91));
#495=CARTESIAN_POINT('Origin',(3.875,0.,3.68291666666668));
#496=CARTESIAN_POINT('',(3.875,0.,5.06));
#497=CARTESIAN_POINT('Origin',(3.875,0.,3.68291666666668));
#498=CARTESIAN_POINT('',(3.875,250.,5.06));
#499=CARTESIAN_POINT('Origin',(3.875,250.,3.68291666666668));
#500=CARTESIAN_POINT('',(3.875,0.,5.06));
#501=CARTESIAN_POINT('Origin',(-3.875,0.,5.06));
#502=CARTESIAN_POINT('',(-3.875,0.,5.06));
#503=CARTESIAN_POINT('',(0.,0.,5.06));
#504=CARTESIAN_POINT('',(-3.875,250.,5.06));
#505=CARTESIAN_POINT('',(0.,250.,5.06));
#506=CARTESIAN_POINT('',(-3.875,0.,5.06));
#507=CARTESIAN_POINT('Origin',(-3.875,0.,3.68291666666668));
#508=CARTESIAN_POINT('',(-4.5,0.,4.91));
#509=CARTESIAN_POINT('Origin',(-3.875,0.,3.68291666666668));
#510=CARTESIAN_POINT('',(-4.5,250.,4.91));
#511=CARTESIAN_POINT('Origin',(-3.875,250.,3.68291666666668));
#512=CARTESIAN_POINT('',(-4.5,0.,4.91));
#513=CARTESIAN_POINT('Origin',(-3.43118315733991,0.,3.85755971340597));
#514=CARTESIAN_POINT('',(-4.5,0.,4.91));
#515=CARTESIAN_POINT('',(-4.5,250.,4.91));
#516=CARTESIAN_POINT('Origin',(0.,250.,2.53));
#517=CARTESIAN_POINT('Origin',(0.,0.,2.53));
#518=UNCERTAINTY_MEASURE_WITH_UNIT(LENGTH_MEASURE(0.01),#522,
'DISTANCE_ACCURACY_VALUE',
'Maximum model space distance between geometric entities at asserted c
onnectivities');
#519=UNCERTAINTY_MEASURE_WITH_UNIT(LENGTH_MEASURE(0.01),#522,
'DISTANCE_ACCURACY_VALUE',
'Maximum model space distance between geometric entities at asserted c
onnectivities');
#520=(
GEOMETRIC_REPRESENTATION_CONTEXT(3)
GLOBAL_UNCERTAINTY_ASSIGNED_CONTEXT((#518))
GLOBAL_UNIT_ASSIGNED_CONTEXT((#522,#524,#525))
REPRESENTATION_CONTEXT('','3D')
);
#521=(
GEOMETRIC_REPRESENTATION_CONTEXT(3)
GLOBAL_UNCERTAINTY_ASSIGNED_CONTEXT((#519))
GLOBAL_UNIT_ASSIGNED_CONTEXT((#522,#524,#525))
REPRESENTATION_CONTEXT('','3D')
);
#522=(
LENGTH_UNIT()
NAMED_UNIT(*)
SI_UNIT(.MILLI.,.METRE.)
);
#523=(
LENGTH_UNIT()
NAMED_UNIT(*)
SI_UNIT($,.METRE.)
);
#524=(
NAMED_UNIT(*)
PLANE_ANGLE_UNIT()
SI_UNIT($,.RADIAN.)
);
#525=(
NAMED_UNIT(*)
SI_UNIT($,.STERADIAN.)
SOLID_ANGLE_UNIT()
);
#526=SHAPE_DEFINITION_REPRESENTATION(#527,#528);
#527=PRODUCT_DEFINITION_SHAPE('',$,#530);
#528=SHAPE_REPRESENTATION('',(#322),#520);
#529=PRODUCT_DEFINITION_CONTEXT('part definition',#534,'design');
#530=PRODUCT_DEFINITION('61-030-','61-030- v1',#531,#529);
#531=PRODUCT_DEFINITION_FORMATION('',$,#536);
#532=PRODUCT_RELATED_PRODUCT_CATEGORY('61-030- v1','61-030- v1',(#536));
#533=APPLICATION_PROTOCOL_DEFINITION('international standard',
'automotive_design',2009,#534);
#534=APPLICATION_CONTEXT(
'Core Data for Automotive Mechanical Design Process');
#535=PRODUCT_CONTEXT('part definition',#534,'mechanical');
#536=PRODUCT('61-030-','61-030- v1',$,(#535));
#537=PRESENTATION_STYLE_ASSIGNMENT((#538));
#538=SURFACE_STYLE_USAGE(.BOTH.,#539);
#539=SURFACE_SIDE_STYLE('',(#540));
#540=SURFACE_STYLE_FILL_AREA(#541);
#541=FILL_AREA_STYLE('Steel - Satin',(#542));
#542=FILL_AREA_STYLE_COLOUR('Steel - Satin',#543);
#543=COLOUR_RGB('Steel - Satin',0.627450980392157,0.627450980392157,0.627450980392157);
ENDSEC;
END-ISO-10303-21;
