ISO-10303-21;
HEADER;
FILE_DESCRIPTION (( 'STEP AP214' ),
    '1' );
FILE_NAME ('1.PPA.034.STEP',
    '2020-08-28T07:07:08',
    ( '' ),
    ( '' ),
    'SwSTEP 2.0',
    'SolidWorks 2018',
    '' );
FILE_SCHEMA (( 'AUTOMOTIVE_DESIGN' ));
ENDSEC;

DATA;
#1 = EDGE_CURVE ( 'NONE', #66, #371, #47, .T. ) ;
#2 = FACE_OUTER_BOUND ( 'NONE', #199, .T. ) ;
#3 = LINE ( 'NONE', #297, #249 ) ;
#4 = ORIENTED_EDGE ( 'NONE', *, *, #282, .F. ) ;
#5 = LINE ( 'NONE', #195, #31 ) ;
#6 = AXIS2_PLACEMENT_3D ( 'NONE', #157, #320, #257 ) ;
#7 = EDGE_CURVE ( 'NONE', #123, #152, #190, .T. ) ;
#8 = DIRECTION ( 'NONE',  ( 0.0000000000000000000, 0.0000000000000000000, 1.000000000000000000 ) ) ;
#9 = UNCERTAINTY_MEASURE_WITH_UNIT (LENGTH_MEASURE( 1.000000000000000082E-05 ), #126, 'distance_accuracy_value', 'NONE');
#10 = DIRECTION ( 'NONE',  ( -0.0000000000000000000, -0.0000000000000000000, -1.000000000000000000 ) ) ;
#11 = SURFACE_STYLE_USAGE ( .BOTH. , #186 ) ;
#12 = VECTOR ( 'NONE', #301, 1000.000000000000000 ) ;
#13 = CARTESIAN_POINT ( 'NONE',  ( 100.0000000000000000, 4.000000000000001776, -9.164003347034070351E-16 ) ) ;
#14 = PLANE ( 'NONE',  #214 ) ;
#15 = APPLICATION_CONTEXT ( 'automotive_design' ) ;
#16 = FACE_OUTER_BOUND ( 'NONE', #73, .T. ) ;
#17 = VERTEX_POINT ( 'NONE', #342 ) ;
#18 = VERTEX_POINT ( 'NONE', #156 ) ;
#19 = DIRECTION ( 'NONE',  ( -1.000000000000000000, -0.0000000000000000000, 0.0000000000000000000 ) ) ;
#20 = DIRECTION ( 'NONE',  ( -1.000000000000000000, -0.0000000000000000000, -0.0000000000000000000 ) ) ;
#21 = VECTOR ( 'NONE', #149, 1000.000000000000000 ) ;
#22 = LINE ( 'NONE', #303, #169 ) ;
#23 = EDGE_CURVE ( 'NONE', #97, #251, #326, .T. ) ;
#24 = CARTESIAN_POINT ( 'NONE',  ( 0.0000000000000000000, -6.749999999999995559, 2.749999999999997780 ) ) ;
#25 = CARTESIAN_POINT ( 'NONE',  ( 100.0000000000000000, -6.750000000000000888, 10.50000000000000000 ) ) ;
#26 = DIRECTION ( 'NONE',  ( -1.000000000000000000, 0.0000000000000000000, -0.0000000000000000000 ) ) ;
#27 = CARTESIAN_POINT ( 'NONE',  ( 100.0000000000000000, -4.000000000000000000, 10.50000000000000000 ) ) ;
#28 = PLANE ( 'NONE',  #145 ) ;
#29 = SURFACE_STYLE_FILL_AREA ( #365 ) ;
#30 = CARTESIAN_POINT ( 'NONE',  ( 0.0000000000000000000, -4.000000000000002665, -4.704598165304544388E-16 ) ) ;
#31 = VECTOR ( 'NONE', #307, 1000.000000000000000 ) ;
#32 = CARTESIAN_POINT ( 'NONE',  ( 0.0000000000000000000, -4.000000000000001776, 0.0000000000000000000 ) ) ;
#33 =( GEOMETRIC_REPRESENTATION_CONTEXT ( 3 ) GLOBAL_UNCERTAINTY_ASSIGNED_CONTEXT ( ( #158 ) ) GLOBAL_UNIT_ASSIGNED_CONTEXT ( ( #189, #68, #283 ) ) REPRESENTATION_CONTEXT ( 'NONE', 'WORKASPACE' ) );
#34 = ORIENTED_EDGE ( 'NONE', *, *, #122, .T. ) ;
#35 = EDGE_LOOP ( 'NONE', ( #325, #4, #61, #268 ) ) ;
#36 = VECTOR ( 'NONE', #10, 1000.000000000000000 ) ;
#37 = LINE ( 'NONE', #260, #349 ) ;
#38 = ORIENTED_EDGE ( 'NONE', *, *, #392, .F. ) ;
#39 = VERTEX_POINT ( 'NONE', #386 ) ;
#40 = CARTESIAN_POINT ( 'NONE',  ( 0.0000000000000000000, 4.000000000000000000, 32.00000000000000000 ) ) ;
#41 = DIRECTION ( 'NONE',  ( 1.000000000000000000, 0.0000000000000000000, 0.0000000000000000000 ) ) ;
#42 = AXIS2_PLACEMENT_3D ( 'NONE', #278, #355, #244 ) ;
#43 = APPLICATION_PROTOCOL_DEFINITION ( 'draft international standard', 'automotive_design', 1998, #15 ) ;
#44 = VECTOR ( 'NONE', #330, 1000.000000000000000 ) ;
#45 = LINE ( 'NONE', #397, #293 ) ;
#46 = AXIS2_PLACEMENT_3D ( 'NONE', #220, #8, #41 ) ;
#47 = LINE ( 'NONE', #372, #284 ) ;
#48 = ORIENTED_EDGE ( 'NONE', *, *, #243, .F. ) ;
#49 = CARTESIAN_POINT ( 'NONE',  ( 0.0000000000000000000, -4.000000000000000000, 10.50000000000000000 ) ) ;
#50 = ADVANCED_FACE ( 'NONE', ( #181 ), #288, .F. ) ;
#51 = DIRECTION ( 'NONE',  ( 0.0000000000000000000, 1.000000000000000000, -0.0000000000000000000 ) ) ;
#52 = CARTESIAN_POINT ( 'NONE',  ( 100.0000000000000000, 6.750000000000000888, 32.00000000000000000 ) ) ;
#53 = LINE ( 'NONE', #273, #72 ) ;
#54 = EDGE_CURVE ( 'NONE', #137, #207, #45, .T. ) ;
#55 = ORIENTED_EDGE ( 'NONE', *, *, #200, .T. ) ;
#56 = CARTESIAN_POINT ( 'NONE',  ( 0.0000000000000000000, -4.000000000000000000, 10.50000000000000178 ) ) ;
#57 = DIRECTION ( 'NONE',  ( -1.000000000000000000, -0.0000000000000000000, -0.0000000000000000000 ) ) ;
#58 = CARTESIAN_POINT ( 'NONE',  ( 0.0000000000000000000, -6.749999999999999112, 10.50000000000000178 ) ) ;
#59 = AXIS2_PLACEMENT_3D ( 'NONE', #218, #285, #191 ) ;
#60 = FACE_OUTER_BOUND ( 'NONE', #398, .T. ) ;
#61 = ORIENTED_EDGE ( 'NONE', *, *, #174, .T. ) ;
#62 = LINE ( 'NONE', #305, #44 ) ;
#63 = ORIENTED_EDGE ( 'NONE', *, *, #197, .F. ) ;
#64 = VECTOR ( 'NONE', #232, 1000.000000000000000 ) ;
#65 = ORIENTED_EDGE ( 'NONE', *, *, #280, .T. ) ;
#66 = VERTEX_POINT ( 'NONE', #270 ) ;
#67 = EDGE_CURVE ( 'NONE', #177, #137, #100, .T. ) ;
#68 =( NAMED_UNIT ( * ) PLANE_ANGLE_UNIT ( ) SI_UNIT ( $, .RADIAN. ) );
#69 = PLANE ( 'NONE',  #59 ) ;
#70 = CARTESIAN_POINT ( 'NONE',  ( 100.0000000000000000, 6.749999999999992006, 2.749999999999999112 ) ) ;
#71 = DIRECTION ( 'NONE',  ( -1.000000000000000000, 0.0000000000000000000, -0.0000000000000000000 ) ) ;
#72 = VECTOR ( 'NONE', #393, 1000.000000000000000 ) ;
#73 = EDGE_LOOP ( 'NONE', ( #116, #364, #77, #314 ) ) ;
#74 = EDGE_CURVE ( 'NONE', #66, #265, #5, .T. ) ;
#75 = PRODUCT_DEFINITION_SHAPE ( 'NONE', 'NONE',  #95 ) ;
#76 = AXIS2_PLACEMENT_3D ( 'NONE', #13, #287, #317 ) ;
#77 = ORIENTED_EDGE ( 'NONE', *, *, #266, .T. ) ;
#78 = ORIENTED_EDGE ( 'NONE', *, *, #103, .T. ) ;
#79 = ADVANCED_FACE ( 'NONE', ( #277 ), #28, .F. ) ;
#80 = UNCERTAINTY_MEASURE_WITH_UNIT (LENGTH_MEASURE( 1.000000000000000082E-05 ), #312, 'distance_accuracy_value', 'NONE');
#81 = DIRECTION ( 'NONE',  ( 0.0000000000000000000, 0.0000000000000000000, -1.000000000000000000 ) ) ;
#82 = DIRECTION ( 'NONE',  ( 0.0000000000000000000, -0.7071067811865464625, -0.7071067811865486830 ) ) ;
#83 = EDGE_CURVE ( 'NONE', #247, #251, #130, .T. ) ;
#84 = COLOUR_RGB ( '',0.7921568627450980005, 0.8196078431372548767, 0.9333333333333333481 ) ;
#85 = LINE ( 'NONE', #389, #333 ) ;
#86 = DIRECTION ( 'NONE',  ( 1.000000000000000000, 0.0000000000000000000, -0.0000000000000000000 ) ) ;
#87 = ORIENTED_EDGE ( 'NONE', *, *, #299, .F. ) ;
#88 = DIRECTION ( 'NONE',  ( -1.000000000000000000, -0.0000000000000000000, -0.0000000000000000000 ) ) ;
#89 = AXIS2_PLACEMENT_3D ( 'NONE', #27, #331, #239 ) ;
#90 = CARTESIAN_POINT ( 'NONE',  ( 100.0000000000000000, 6.749999999999993783, 2.749999999999999112 ) ) ;
#91 = CARTESIAN_POINT ( 'NONE',  ( 100.0000000000000000, 4.000000000000000000, 32.00000000000000000 ) ) ;
#92 = VECTOR ( 'NONE', #82, 1000.000000000000000 ) ;
#93 = ORIENTED_EDGE ( 'NONE', *, *, #354, .T. ) ;
#94 = ORIENTED_EDGE ( 'NONE', *, *, #282, .T. ) ;
#95 = PRODUCT_DEFINITION ( 'NON CONOSCIUTO', '', #153, #114 ) ;
#96 = LINE ( 'NONE', #238, #302 ) ;
#97 = VERTEX_POINT ( 'NONE', #113 ) ;
#98 = VECTOR ( 'NONE', #271, 1000.000000000000000 ) ;
#99 = ORIENTED_EDGE ( 'NONE', *, *, #209, .T. ) ;
#100 = LINE ( 'NONE', #374, #118 ) ;
#101 = PLANE ( 'NONE',  #318 ) ;
#102 = ORIENTED_EDGE ( 'NONE', *, *, #281, .T. ) ;
#103 = EDGE_CURVE ( 'NONE', #251, #17, #96, .T. ) ;
#104 = CARTESIAN_POINT ( 'NONE',  ( 100.0000000000000000, 6.749999999999992006, 2.749999999999999112 ) ) ;
#105 =( NAMED_UNIT ( * ) PLANE_ANGLE_UNIT ( ) SI_UNIT ( $, .RADIAN. ) );
#106 = DIRECTION ( 'NONE',  ( 0.0000000000000000000, 0.0000000000000000000, -1.000000000000000000 ) ) ;
#107 = PLANE ( 'NONE',  #252 ) ;
#108 = FACE_OUTER_BOUND ( 'NONE', #363, .T. ) ;
#109 = ORIENTED_EDGE ( 'NONE', *, *, #122, .F. ) ;
#110 = ADVANCED_FACE ( 'NONE', ( #246 ), #168, .F. ) ;
#111 = CARTESIAN_POINT ( 'NONE',  ( 100.0000000000000000, -4.000000000000000000, 32.00000000000000000 ) ) ;
#112 = ORIENTED_EDGE ( 'NONE', *, *, #74, .F. ) ;
#113 = CARTESIAN_POINT ( 'NONE',  ( 0.0000000000000000000, 4.000000000000000000, 32.00000000000000000 ) ) ;
#114 = PRODUCT_DEFINITION_CONTEXT ( 'detailed design', #128, 'design' ) ;
#115 = LINE ( 'NONE', #380, #378 ) ;
#116 = ORIENTED_EDGE ( 'NONE', *, *, #280, .F. ) ;
#117 = FACE_OUTER_BOUND ( 'NONE', #165, .T. ) ;
#118 = VECTOR ( 'NONE', #201, 1000.000000000000000 ) ;
#119 = DIRECTION ( 'NONE',  ( -0.0000000000000000000, -1.000000000000000000, 0.0000000000000000000 ) ) ;
#120 = FILL_AREA_STYLE_COLOUR ( '', #223 ) ;
#121 = EDGE_LOOP ( 'NONE', ( #261, #94, #87, #171, #198, #339, #360, #48, #328, #310 ) ) ;
#122 = EDGE_CURVE ( 'NONE', #143, #248, #196, .T. ) ;
#123 = VERTEX_POINT ( 'NONE', #359 ) ;
#124 = ORIENTED_EDGE ( 'NONE', *, *, #263, .T. ) ;
#125 = DIRECTION ( 'NONE',  ( -0.0000000000000000000, -0.0000000000000000000, -1.000000000000000000 ) ) ;
#126 =( LENGTH_UNIT ( ) NAMED_UNIT ( * ) SI_UNIT ( .MILLI., .METRE. ) );
#127 = CARTESIAN_POINT ( 'NONE',  ( 100.0000000000000000, -6.749999999999995559, 2.749999999999997335 ) ) ;
#128 = APPLICATION_CONTEXT ( 'automotive_design' ) ;
#129 = CARTESIAN_POINT ( 'NONE',  ( 0.0000000000000000000, -4.000000000000000000, 32.00000000000000000 ) ) ;
#130 = LINE ( 'NONE', #172, #253 ) ;
#131 = DIRECTION ( 'NONE',  ( 0.0000000000000000000, 0.0000000000000000000, 1.000000000000000000 ) ) ;
#132 = ORIENTED_EDGE ( 'NONE', *, *, #83, .T. ) ;
#133 = PRODUCT_RELATED_PRODUCT_CATEGORY ( 'part', '', ( #368 ) ) ;
#134 = ADVANCED_FACE ( 'NONE', ( #16 ), #272, .F. ) ;
#135 = LINE ( 'NONE', #111, #336 ) ;
#136 = ORIENTED_EDGE ( 'NONE', *, *, #385, .T. ) ;
#137 = VERTEX_POINT ( 'NONE', #241 ) ;
#138 = CARTESIAN_POINT ( 'NONE',  ( 100.0000000000000000, 6.749999999999992006, 2.749999999999999112 ) ) ;
#139 = DIRECTION ( 'NONE',  ( 0.0000000000000000000, -1.119176436114068839E-15, -1.000000000000000000 ) ) ;
#140 = CARTESIAN_POINT ( 'NONE',  ( 100.0000000000000000, -6.750000000000000888, 10.50000000000000000 ) ) ;
#141 = SURFACE_STYLE_FILL_AREA ( #322 ) ;
#142 = VECTOR ( 'NONE', #144, 1000.000000000000000 ) ;
#143 = VERTEX_POINT ( 'NONE', #56 ) ;
#144 = DIRECTION ( 'NONE',  ( 0.0000000000000000000, -0.0000000000000000000, 1.000000000000000000 ) ) ;
#145 = AXIS2_PLACEMENT_3D ( 'NONE', #361, #81, #178 ) ;
#146 = VECTOR ( 'NONE', #388, 1000.000000000000000 ) ;
#147 = ORIENTED_EDGE ( 'NONE', *, *, #319, .T. ) ;
#148 = ORIENTED_EDGE ( 'NONE', *, *, #7, .T. ) ;
#149 = DIRECTION ( 'NONE',  ( 1.000000000000000000, -0.0000000000000000000, 0.0000000000000000000 ) ) ;
#150 = PRESENTATION_STYLE_ASSIGNMENT (( #11 ) ) ;
#151 = FACE_OUTER_BOUND ( 'NONE', #225, .T. ) ;
#152 = VERTEX_POINT ( 'NONE', #329 ) ;
#153 = PRODUCT_DEFINITION_FORMATION_WITH_SPECIFIED_SOURCE ( 'TUTTO', '', #368, .NOT_KNOWN. ) ;
#154 = EDGE_LOOP ( 'NONE', ( #147, #179, #315, #279 ) ) ;
#155 = FILL_AREA_STYLE_COLOUR ( '', #84 ) ;
#156 = CARTESIAN_POINT ( 'NONE',  ( -1.561251128379126385E-14, 6.749999999999993783, 2.749999999999999112 ) ) ;
#157 = CARTESIAN_POINT ( 'NONE',  ( 100.0000000000000000, 4.000000000000000000, 32.00000000000000000 ) ) ;
#158 = UNCERTAINTY_MEASURE_WITH_UNIT (LENGTH_MEASURE( 1.000000000000000082E-05 ), #189, 'distance_accuracy_value', 'NONE');
#159 = CARTESIAN_POINT ( 'NONE',  ( 100.0000000000000000, 4.000000000000000000, 10.50000000000000178 ) ) ;
#160 = DIRECTION ( 'NONE',  ( 0.0000000000000000000, -6.715058616684411060E-16, 1.000000000000000000 ) ) ;
#161 = LINE ( 'NONE', #140, #237 ) ;
#162 = CARTESIAN_POINT ( 'NONE',  ( 100.0000000000000000, 4.000000000000000000, 10.50000000000000000 ) ) ;
#163 = PRESENTATION_LAYER_ASSIGNMENT (  '', '', ( #358 ) ) ;
#164 = LINE ( 'NONE', #138, #92 ) ;
#165 = EDGE_LOOP ( 'NONE', ( #399, #99, #124, #216 ) ) ;
#166 = EDGE_LOOP ( 'NONE', ( #351, #264, #148, #38 ) ) ;
#167 = LINE ( 'NONE', #91, #21 ) ;
#168 = PLANE ( 'NONE',  #42 ) ;
#169 = VECTOR ( 'NONE', #356, 1000.000000000000000 ) ;
#170 = CARTESIAN_POINT ( 'NONE',  ( 100.0000000000000000, -4.000000000000000000, 10.50000000000000178 ) ) ;
#171 = ORIENTED_EDGE ( 'NONE', *, *, #67, .F. ) ;
#172 = CARTESIAN_POINT ( 'NONE',  ( 100.0000000000000000, 4.000000000000000000, 10.50000000000000000 ) ) ;
#173 = DIRECTION ( 'NONE',  ( 0.0000000000000000000, -1.000000000000000000, 1.119176436114068839E-15 ) ) ;
#174 = EDGE_CURVE ( 'NONE', #265, #143, #53, .T. ) ;
#175 = SHAPE_DEFINITION_REPRESENTATION ( #75, #233 ) ;
#176 = FACE_OUTER_BOUND ( 'NONE', #121, .T. ) ;
#177 = VERTEX_POINT ( 'NONE', #357 ) ;
#178 = DIRECTION ( 'NONE',  ( -1.000000000000000000, 0.0000000000000000000, -0.0000000000000000000 ) ) ;
#179 = ORIENTED_EDGE ( 'NONE', *, *, #1, .T. ) ;
#180 = SURFACE_SIDE_STYLE ('',( #29 ) ) ;
#181 = FACE_OUTER_BOUND ( 'NONE', #269, .T. ) ;
#182 = ORIENTED_EDGE ( 'NONE', *, *, #319, .F. ) ;
#183 = EDGE_CURVE ( 'NONE', #248, #97, #350, .T. ) ;
#184 = LINE ( 'NONE', #362, #215 ) ;
#185 = ORIENTED_EDGE ( 'NONE', *, *, #256, .T. ) ;
#186 = SURFACE_SIDE_STYLE ('',( #141 ) ) ;
#187 = DIRECTION ( 'NONE',  ( 0.0000000000000000000, 0.0000000000000000000, -1.000000000000000000 ) ) ;
#188 = CARTESIAN_POINT ( 'NONE',  ( 100.0000000000000000, 4.000000000000001776, -9.164003347034070351E-16 ) ) ;
#189 =( LENGTH_UNIT ( ) NAMED_UNIT ( * ) SI_UNIT ( .MILLI., .METRE. ) );
#190 = LINE ( 'NONE', #188, #367 ) ;
#191 = DIRECTION ( 'NONE',  ( 0.0000000000000000000, 0.0000000000000000000, 1.000000000000000000 ) ) ;
#192 = ORIENTED_EDGE ( 'NONE', *, *, #23, .F. ) ;
#193 = PRODUCT_CONTEXT ( 'NONE', #15, 'mechanical' ) ;
#194 = DIRECTION ( 'NONE',  ( 0.0000000000000000000, 1.000000000000000000, -0.0000000000000000000 ) ) ;
#195 = CARTESIAN_POINT ( 'NONE',  ( 100.0000000000000000, -4.000000000000000000, 10.50000000000000000 ) ) ;
#196 = LINE ( 'NONE', #49, #142 ) ;
#197 = EDGE_CURVE ( 'NONE', #207, #217, #62, .T. ) ;
#198 = ORIENTED_EDGE ( 'NONE', *, *, #209, .F. ) ;
#199 = EDGE_LOOP ( 'NONE', ( #93, #384, #132, #192 ) ) ;
#200 = EDGE_CURVE ( 'NONE', #353, #207, #309, .T. ) ;
#201 = DIRECTION ( 'NONE',  ( 0.0000000000000000000, -0.7071067811865473507, 0.7071067811865477948 ) ) ;
#202 = CARTESIAN_POINT ( 'NONE',  ( 100.0000000000000000, 6.750000000000000888, 10.50000000000000000 ) ) ;
#203 = VECTOR ( 'NONE', #394, 1000.000000000000000 ) ;
#204 = ORIENTED_EDGE ( 'NONE', *, *, #54, .T. ) ;
#205 = CARTESIAN_POINT ( 'NONE',  ( 0.0000000000000000000, 4.000000000000000000, 32.00000000000000000 ) ) ;
#206 = LINE ( 'NONE', #290, #390 ) ;
#207 = VERTEX_POINT ( 'NONE', #24 ) ;
#208 = CLOSED_SHELL ( 'NONE', ( #275, #240, #235, #227, #79, #50, #110, #387, #395, #134, #230, #381 ) ) ;
#209 = EDGE_CURVE ( 'NONE', #123, #177, #85, .T. ) ;
#210 = SURFACE_STYLE_USAGE ( .BOTH. , #180 ) ;
#211 = LINE ( 'NONE', #52, #64 ) ;
#212 = VERTEX_POINT ( 'NONE', #332 ) ;
#213 = CARTESIAN_POINT ( 'NONE',  ( 100.0000000000000000, 4.000000000000000000, 32.00000000000000000 ) ) ;
#214 = AXIS2_PLACEMENT_3D ( 'NONE', #40, #258, #131 ) ;
#215 = VECTOR ( 'NONE', #119, 1000.000000000000000 ) ;
#216 = ORIENTED_EDGE ( 'NONE', *, *, #221, .F. ) ;
#217 = VERTEX_POINT ( 'NONE', #58 ) ;
#218 = CARTESIAN_POINT ( 'NONE',  ( 100.0000000000000000, 4.000000000000000000, 32.00000000000000000 ) ) ;
#219 = CARTESIAN_POINT ( 'NONE',  ( 100.0000000000000000, -4.000000000000001776, -9.164003347034070351E-16 ) ) ;
#220 = CARTESIAN_POINT ( 'NONE',  ( 0.0000000000000000000, 0.0000000000000000000, 0.0000000000000000000 ) ) ;
#221 = EDGE_CURVE ( 'NONE', #152, #353, #184, .T. ) ;
#222 = FACE_OUTER_BOUND ( 'NONE', #166, .T. ) ;
#223 = COLOUR_RGB ( '',0.7921568627450980005, 0.8196078431372548767, 0.9333333333333333481 ) ;
#224 = CARTESIAN_POINT ( 'NONE',  ( 100.0000000000000000, 4.000000000000000000, 10.50000000000000178 ) ) ;
#225 = EDGE_LOOP ( 'NONE', ( #229, #112, #182, #109 ) ) ;
#226 = PLANE ( 'NONE',  #76 ) ;
#227 = ADVANCED_FACE ( 'NONE', ( #176 ), #69, .F. ) ;
#228 = EDGE_LOOP ( 'NONE', ( #343, #337, #204, #254 ) ) ;
#229 = ORIENTED_EDGE ( 'NONE', *, *, #174, .F. ) ;
#230 = ADVANCED_FACE ( 'NONE', ( #108 ), #101, .F. ) ;
#231 = EDGE_CURVE ( 'NONE', #371, #247, #115, .T. ) ;
#232 = DIRECTION ( 'NONE',  ( -0.0000000000000000000, -0.0000000000000000000, -1.000000000000000000 ) ) ;
#233 = ADVANCED_BREP_SHAPE_REPRESENTATION ( '1.PPA.034', ( #347, #46 ), #308 ) ;
#234 = DIRECTION ( 'NONE',  ( -0.0000000000000000000, -1.000000000000000000, 0.0000000000000000000 ) ) ;
#235 = ADVANCED_FACE ( 'NONE', ( #383 ), #321, .F. ) ;
#236 = PLANE ( 'NONE',  #89 ) ;
#237 = VECTOR ( 'NONE', #274, 1000.000000000000000 ) ;
#238 = CARTESIAN_POINT ( 'NONE',  ( 0.0000000000000000000, 4.000000000000000000, 10.50000000000000178 ) ) ;
#239 = DIRECTION ( 'NONE',  ( 0.0000000000000000000, -0.0000000000000000000, 1.000000000000000000 ) ) ;
#240 = ADVANCED_FACE ( 'NONE', ( #60 ), #14, .T. ) ;
#241 = CARTESIAN_POINT ( 'NONE',  ( 100.0000000000000000, -6.749999999999995559, 2.749999999999997780 ) ) ;
#242 = CARTESIAN_POINT ( 'NONE',  ( 100.0000000000000000, 6.750000000000000888, 10.50000000000000000 ) ) ;
#243 = EDGE_CURVE ( 'NONE', #247, #212, #259, .T. ) ;
#244 = DIRECTION ( 'NONE',  ( 0.0000000000000000000, -0.7071067811865469066, 0.7071067811865482389 ) ) ;
#245 = AXIS2_PLACEMENT_3D ( 'NONE', #202, #173, #139 ) ;
#246 = FACE_OUTER_BOUND ( 'NONE', #228, .T. ) ;
#247 = VERTEX_POINT ( 'NONE', #159 ) ;
#248 = VERTEX_POINT ( 'NONE', #129 ) ;
#249 = VECTOR ( 'NONE', #396, 1000.000000000000000 ) ;
#250 =( NAMED_UNIT ( * ) PLANE_ANGLE_UNIT ( ) SI_UNIT ( $, .RADIAN. ) );
#251 = VERTEX_POINT ( 'NONE', #376 ) ;
#252 = AXIS2_PLACEMENT_3D ( 'NONE', #70, #375, #377 ) ;
#253 = VECTOR ( 'NONE', #26, 1000.000000000000000 ) ;
#254 = ORIENTED_EDGE ( 'NONE', *, *, #200, .F. ) ;
#255 = ORIENTED_EDGE ( 'NONE', *, *, #23, .T. ) ;
#256 = EDGE_CURVE ( 'NONE', #217, #143, #3, .T. ) ;
#257 = DIRECTION ( 'NONE',  ( 0.0000000000000000000, -0.0000000000000000000, -1.000000000000000000 ) ) ;
#258 = DIRECTION ( 'NONE',  ( -1.000000000000000000, 0.0000000000000000000, 0.0000000000000000000 ) ) ;
#259 = LINE ( 'NONE', #224, #391 ) ;
#260 = CARTESIAN_POINT ( 'NONE',  ( 0.0000000000000000000, 6.750000000000000888, 32.00000000000000000 ) ) ;
#261 = ORIENTED_EDGE ( 'NONE', *, *, #74, .T. ) ;
#262 = MECHANICAL_DESIGN_GEOMETRIC_PRESENTATION_REPRESENTATION (  '', ( #335 ), #298 ) ;
#263 = EDGE_CURVE ( 'NONE', #177, #353, #276, .T. ) ;
#264 = ORIENTED_EDGE ( 'NONE', *, *, #306, .T. ) ;
#265 = VERTEX_POINT ( 'NONE', #170 ) ;
#266 = EDGE_CURVE ( 'NONE', #352, #18, #323, .T. ) ;
#267 = DIRECTION ( 'NONE',  ( 0.0000000000000000000, 1.000000000000000000, -0.0000000000000000000 ) ) ;
#268 = ORIENTED_EDGE ( 'NONE', *, *, #256, .F. ) ;
#269 = EDGE_LOOP ( 'NONE', ( #304, #344, #102, #63 ) ) ;
#270 = CARTESIAN_POINT ( 'NONE',  ( 100.0000000000000000, -4.000000000000000000, 32.00000000000000000 ) ) ;
#271 = DIRECTION ( 'NONE',  ( -0.0000000000000000000, -1.000000000000000000, -0.0000000000000000000 ) ) ;
#272 = PLANE ( 'NONE',  #245 ) ;
#273 = CARTESIAN_POINT ( 'NONE',  ( 100.0000000000000000, -4.000000000000000000, 10.50000000000000000 ) ) ;
#274 = DIRECTION ( 'NONE',  ( -1.000000000000000000, 0.0000000000000000000, -0.0000000000000000000 ) ) ;
#275 = ADVANCED_FACE ( 'NONE', ( #151 ), #236, .F. ) ;
#276 = LINE ( 'NONE', #219, #327 ) ;
#277 = FACE_OUTER_BOUND ( 'NONE', #154, .T. ) ;
#278 = CARTESIAN_POINT ( 'NONE',  ( 100.0000000000000000, -4.000000000000001776, -9.164003347034070351E-16 ) ) ;
#279 = ORIENTED_EDGE ( 'NONE', *, *, #183, .F. ) ;
#280 = EDGE_CURVE ( 'NONE', #212, #17, #313, .T. ) ;
#281 = EDGE_CURVE ( 'NONE', #39, #217, #161, .T. ) ;
#282 = EDGE_CURVE ( 'NONE', #265, #39, #338, .T. ) ;
#283 =( NAMED_UNIT ( * ) SI_UNIT ( $, .STERADIAN. ) SOLID_ANGLE_UNIT ( ) );
#284 = VECTOR ( 'NONE', #267, 1000.000000000000000 ) ;
#285 = DIRECTION ( 'NONE',  ( -1.000000000000000000, 0.0000000000000000000, 0.0000000000000000000 ) ) ;
#286 = CARTESIAN_POINT ( 'NONE',  ( 0.0000000000000000000, 4.000000000000000000, 32.00000000000000000 ) ) ;
#287 = DIRECTION ( 'NONE',  ( 0.0000000000000000000, 0.0000000000000000000, 1.000000000000000000 ) ) ;
#288 = PLANE ( 'NONE',  #340 ) ;
#289 = EDGE_CURVE ( 'NONE', #212, #352, #211, .T. ) ;
#290 = CARTESIAN_POINT ( 'NONE',  ( 0.0000000000000000000, 6.749999999999992006, 2.749999999999999112 ) ) ;
#291 = CARTESIAN_POINT ( 'NONE',  ( 100.0000000000000000, -6.750000000000000888, 10.50000000000000000 ) ) ;
#292 = PRESENTATION_STYLE_ASSIGNMENT (( #210 ) ) ;
#293 = VECTOR ( 'NONE', #88, 1000.000000000000000 ) ;
#294 = AXIS2_PLACEMENT_3D ( 'NONE', #291, #106, #324 ) ;
#295 = ORIENTED_EDGE ( 'NONE', *, *, #103, .F. ) ;
#296 = ORIENTED_EDGE ( 'NONE', *, *, #83, .F. ) ;
#297 = CARTESIAN_POINT ( 'NONE',  ( 0.0000000000000000000, 4.000000000000000000, 10.50000000000000178 ) ) ;
#298 =( GEOMETRIC_REPRESENTATION_CONTEXT ( 3 ) GLOBAL_UNCERTAINTY_ASSIGNED_CONTEXT ( ( #80 ) ) GLOBAL_UNIT_ASSIGNED_CONTEXT ( ( #312, #250, #400 ) ) REPRESENTATION_CONTEXT ( 'NONE', 'WORKASPACE' ) );
#299 = EDGE_CURVE ( 'NONE', #137, #39, #22, .T. ) ;
#300 = PRESENTATION_LAYER_ASSIGNMENT (  '', '', ( #335 ) ) ;
#301 = DIRECTION ( 'NONE',  ( 0.0000000000000000000, 1.000000000000000000, -0.0000000000000000000 ) ) ;
#302 = VECTOR ( 'NONE', #51, 1000.000000000000000 ) ;
#303 = CARTESIAN_POINT ( 'NONE',  ( 100.0000000000000000, -6.749999999999995559, 32.00000000000000000 ) ) ;
#304 = ORIENTED_EDGE ( 'NONE', *, *, #54, .F. ) ;
#305 = CARTESIAN_POINT ( 'NONE',  ( 0.0000000000000000000, -6.749999999999995559, 32.00000000000000000 ) ) ;
#306 = EDGE_CURVE ( 'NONE', #352, #123, #164, .T. ) ;
#307 = DIRECTION ( 'NONE',  ( -0.0000000000000000000, 0.0000000000000000000, -1.000000000000000000 ) ) ;
#308 =( GEOMETRIC_REPRESENTATION_CONTEXT ( 3 ) GLOBAL_UNCERTAINTY_ASSIGNED_CONTEXT ( ( #9 ) ) GLOBAL_UNIT_ASSIGNED_CONTEXT ( ( #126, #105, #341 ) ) REPRESENTATION_CONTEXT ( 'NONE', 'WORKASPACE' ) );
#309 = LINE ( 'NONE', #32, #203 ) ;
#310 = ORIENTED_EDGE ( 'NONE', *, *, #1, .F. ) ;
#311 = ORIENTED_EDGE ( 'NONE', *, *, #243, .T. ) ;
#312 =( LENGTH_UNIT ( ) NAMED_UNIT ( * ) SI_UNIT ( .MILLI., .METRE. ) );
#313 = LINE ( 'NONE', #242, #366 ) ;
#314 = ORIENTED_EDGE ( 'NONE', *, *, #385, .F. ) ;
#315 = ORIENTED_EDGE ( 'NONE', *, *, #354, .F. ) ;
#316 = ORIENTED_EDGE ( 'NONE', *, *, #392, .T. ) ;
#317 = DIRECTION ( 'NONE',  ( 1.000000000000000000, 0.0000000000000000000, -0.0000000000000000000 ) ) ;
#318 = AXIS2_PLACEMENT_3D ( 'NONE', #162, #187, #71 ) ;
#319 = EDGE_CURVE ( 'NONE', #248, #66, #135, .T. ) ;
#320 = DIRECTION ( 'NONE',  ( 0.0000000000000000000, -1.000000000000000000, 0.0000000000000000000 ) ) ;
#321 = PLANE ( 'NONE',  #294 ) ;
#322 = FILL_AREA_STYLE ('',( #155 ) ) ;
#323 = LINE ( 'NONE', #104, #146 ) ;
#324 = DIRECTION ( 'NONE',  ( -1.000000000000000000, 0.0000000000000000000, -0.0000000000000000000 ) ) ;
#325 = ORIENTED_EDGE ( 'NONE', *, *, #281, .F. ) ;
#326 = LINE ( 'NONE', #286, #36 ) ;
#327 = VECTOR ( 'NONE', #57, 1000.000000000000000 ) ;
#328 = ORIENTED_EDGE ( 'NONE', *, *, #231, .F. ) ;
#329 = CARTESIAN_POINT ( 'NONE',  ( -3.122502256758252770E-14, 4.000000000000001776, -1.204882038912805700E-15 ) ) ;
#330 = DIRECTION ( 'NONE',  ( 0.0000000000000000000, 0.0000000000000000000, 1.000000000000000000 ) ) ;
#331 = DIRECTION ( 'NONE',  ( 0.0000000000000000000, 1.000000000000000000, 0.0000000000000000000 ) ) ;
#332 = CARTESIAN_POINT ( 'NONE',  ( 100.0000000000000000, 6.750000000000000888, 10.50000000000000178 ) ) ;
#333 = VECTOR ( 'NONE', #234, 1000.000000000000000 ) ;
#334 = ORIENTED_EDGE ( 'NONE', *, *, #197, .T. ) ;
#335 = STYLED_ITEM ( 'NONE', ( #292 ), #347 ) ;
#336 = VECTOR ( 'NONE', #86, 1000.000000000000000 ) ;
#337 = ORIENTED_EDGE ( 'NONE', *, *, #67, .T. ) ;
#338 = LINE ( 'NONE', #25, #98 ) ;
#339 = ORIENTED_EDGE ( 'NONE', *, *, #306, .F. ) ;
#340 = AXIS2_PLACEMENT_3D ( 'NONE', #127, #345, #160 ) ;
#341 =( NAMED_UNIT ( * ) SI_UNIT ( $, .STERADIAN. ) SOLID_ANGLE_UNIT ( ) );
#342 = CARTESIAN_POINT ( 'NONE',  ( 0.0000000000000000000, 6.750000000000000888, 10.50000000000000178 ) ) ;
#343 = ORIENTED_EDGE ( 'NONE', *, *, #263, .F. ) ;
#344 = ORIENTED_EDGE ( 'NONE', *, *, #299, .T. ) ;
#345 = DIRECTION ( 'NONE',  ( -0.0000000000000000000, 1.000000000000000000, 6.715058616684411060E-16 ) ) ;
#346 = APPLICATION_PROTOCOL_DEFINITION ( 'draft international standard', 'automotive_design', 1998, #128 ) ;
#347 = MANIFOLD_SOLID_BREP ( 'Elemento strutturale1', #208 ) ;
#348 = PLANE ( 'NONE',  #6 ) ;
#349 = VECTOR ( 'NONE', #369, 1000.000000000000000 ) ;
#350 = LINE ( 'NONE', #205, #12 ) ;
#351 = ORIENTED_EDGE ( 'NONE', *, *, #266, .F. ) ;
#352 = VERTEX_POINT ( 'NONE', #90 ) ;
#353 = VERTEX_POINT ( 'NONE', #30 ) ;
#354 = EDGE_CURVE ( 'NONE', #97, #371, #167, .T. ) ;
#355 = DIRECTION ( 'NONE',  ( -0.0000000000000000000, 0.7071067811865482389, 0.7071067811865469066 ) ) ;
#356 = DIRECTION ( 'NONE',  ( 0.0000000000000000000, 0.0000000000000000000, 1.000000000000000000 ) ) ;
#357 = CARTESIAN_POINT ( 'NONE',  ( 100.0000000000000000, -4.000000000000002665, -4.704598165304544388E-16 ) ) ;
#358 = STYLED_ITEM ( 'NONE', ( #150 ), #233 ) ;
#359 = CARTESIAN_POINT ( 'NONE',  ( 100.0000000000000000, 4.000000000000001776, -1.204882038912805700E-15 ) ) ;
#360 = ORIENTED_EDGE ( 'NONE', *, *, #289, .F. ) ;
#361 = CARTESIAN_POINT ( 'NONE',  ( 100.0000000000000000, -4.000000000000000000, 32.00000000000000000 ) ) ;
#362 = CARTESIAN_POINT ( 'NONE',  ( 0.0000000000000000000, 4.000000000000000000, 0.0000000000000000000 ) ) ;
#363 = EDGE_LOOP ( 'NONE', ( #296, #311, #65, #295 ) ) ;
#364 = ORIENTED_EDGE ( 'NONE', *, *, #289, .T. ) ;
#365 = FILL_AREA_STYLE ('',( #120 ) ) ;
#366 = VECTOR ( 'NONE', #20, 1000.000000000000000 ) ;
#367 = VECTOR ( 'NONE', #19, 1000.000000000000000 ) ;
#368 = PRODUCT ( '1.PPA.034', '1.PPA.034', '', ( #193 ) ) ;
#369 = DIRECTION ( 'NONE',  ( -0.0000000000000000000, -0.0000000000000000000, -1.000000000000000000 ) ) ;
#370 = ORIENTED_EDGE ( 'NONE', *, *, #221, .T. ) ;
#371 = VERTEX_POINT ( 'NONE', #213 ) ;
#372 = CARTESIAN_POINT ( 'NONE',  ( 100.0000000000000000, 4.000000000000000000, 32.00000000000000000 ) ) ;
#373 = DIRECTION ( 'NONE',  ( 0.0000000000000000000, -0.7071067811865464625, -0.7071067811865486830 ) ) ;
#374 = CARTESIAN_POINT ( 'NONE',  ( 100.0000000000000000, -4.000000000000001776, 0.0000000000000000000 ) ) ;
#375 = DIRECTION ( 'NONE',  ( 0.0000000000000000000, -0.7071067811865489050, 0.7071067811865462405 ) ) ;
#376 = CARTESIAN_POINT ( 'NONE',  ( 0.0000000000000000000, 4.000000000000000000, 10.50000000000000178 ) ) ;
#377 = DIRECTION ( 'NONE',  ( 0.0000000000000000000, -0.7071067811865462405, -0.7071067811865489050 ) ) ;
#378 = VECTOR ( 'NONE', #125, 1000.000000000000000 ) ;
#379 = ORIENTED_EDGE ( 'NONE', *, *, #183, .T. ) ;
#380 = CARTESIAN_POINT ( 'NONE',  ( 100.0000000000000000, 4.000000000000000000, 32.00000000000000000 ) ) ;
#381 = ADVANCED_FACE ( 'NONE', ( #2 ), #348, .F. ) ;
#382 = MECHANICAL_DESIGN_GEOMETRIC_PRESENTATION_REPRESENTATION (  '', ( #358 ), #33 ) ;
#383 = FACE_OUTER_BOUND ( 'NONE', #35, .T. ) ;
#384 = ORIENTED_EDGE ( 'NONE', *, *, #231, .T. ) ;
#385 = EDGE_CURVE ( 'NONE', #17, #18, #37, .T. ) ;
#386 = CARTESIAN_POINT ( 'NONE',  ( 100.0000000000000000, -6.749999999999998224, 10.50000000000000178 ) ) ;
#387 = ADVANCED_FACE ( 'NONE', ( #117 ), #226, .F. ) ;
#388 = DIRECTION ( 'NONE',  ( -1.000000000000000000, -0.0000000000000000000, -0.0000000000000000000 ) ) ;
#389 = CARTESIAN_POINT ( 'NONE',  ( 100.0000000000000000, 4.000000000000000000, 0.0000000000000000000 ) ) ;
#390 = VECTOR ( 'NONE', #373, 1000.000000000000000 ) ;
#391 = VECTOR ( 'NONE', #194, 1000.000000000000000 ) ;
#392 = EDGE_CURVE ( 'NONE', #18, #152, #206, .T. ) ;
#393 = DIRECTION ( 'NONE',  ( -1.000000000000000000, -0.0000000000000000000, 0.0000000000000000000 ) ) ;
#394 = DIRECTION ( 'NONE',  ( 0.0000000000000000000, -0.7071067811865473507, 0.7071067811865477948 ) ) ;
#395 = ADVANCED_FACE ( 'NONE', ( #222 ), #107, .F. ) ;
#396 = DIRECTION ( 'NONE',  ( 0.0000000000000000000, 1.000000000000000000, -0.0000000000000000000 ) ) ;
#397 = CARTESIAN_POINT ( 'NONE',  ( 100.0000000000000000, -6.749999999999995559, 2.749999999999997335 ) ) ;
#398 = EDGE_LOOP ( 'NONE', ( #185, #34, #379, #255, #78, #136, #316, #370, #55, #334 ) ) ;
#399 = ORIENTED_EDGE ( 'NONE', *, *, #7, .F. ) ;
#400 =( NAMED_UNIT ( * ) SI_UNIT ( $, .STERADIAN. ) SOLID_ANGLE_UNIT ( ) );
ENDSEC;
END-ISO-10303-21;
