ISO-10303-21;
HEADER;
/* Generated by software containing ST-Developer
 * from STEP Tools, Inc. (www.steptools.com) 
 */

FILE_DESCRIPTION(
/* description */ (''),
/* implementation_level */ '2;1');

FILE_NAME(
/* name */ 'C:\\Users\\aorselli\\Desktop\\FIXED STEP\\61D-010-2.stp',
/* time_stamp */ '2022-07-21T11:10:57-04:00',
/* author */ ('aorselli'),
/* organization */ (''),
/* preprocessor_version */ 'ST-DEVELOPER v18.1',
/* originating_system */ 'AutoCAD Mechanical',
/* authorisation */ '');

FILE_SCHEMA (('AUTOMOTIVE_DESIGN { 1 0 10303 214 3 1 1 }'));
ENDSEC;

DATA;
#10=MECHANICAL_DESIGN_GEOMETRIC_PRESENTATION_REPRESENTATION('',(#15),#593);
#11=PRESENTATION_LAYER_ASSIGNMENT('0','0',());
#12=PRESENTATION_LAYER_ASSIGNMENT('8','AMC_Contour',(#16));
#13=SHAPE_REPRESENTATION_RELATIONSHIP('SRR','None',#599,#14);
#14=ADVANCED_BREP_SHAPE_REPRESENTATION('',(#16),#592);
#15=STYLED_ITEM('',(#608),#16);
#16=MANIFOLD_SOLID_BREP('5ECC1',#337);
#17=CYLINDRICAL_SURFACE('',#352,1.5);
#18=CYLINDRICAL_SURFACE('',#355,0.5);
#19=CYLINDRICAL_SURFACE('',#357,12.6);
#20=CYLINDRICAL_SURFACE('',#359,0.5);
#21=CYLINDRICAL_SURFACE('',#362,0.3);
#22=CYLINDRICAL_SURFACE('',#364,14.3);
#23=CYLINDRICAL_SURFACE('',#366,0.3);
#24=CYLINDRICAL_SURFACE('',#369,0.5);
#25=CYLINDRICAL_SURFACE('',#371,12.6);
#26=CYLINDRICAL_SURFACE('',#373,0.5);
#27=CYLINDRICAL_SURFACE('',#376,1.5);
#28=CYLINDRICAL_SURFACE('',#380,16.5);
#29=FACE_OUTER_BOUND('',#47,.T.);
#30=FACE_OUTER_BOUND('',#48,.T.);
#31=FACE_OUTER_BOUND('',#49,.T.);
#32=FACE_OUTER_BOUND('',#50,.T.);
#33=FACE_OUTER_BOUND('',#51,.T.);
#34=FACE_OUTER_BOUND('',#52,.T.);
#35=FACE_OUTER_BOUND('',#53,.T.);
#36=FACE_OUTER_BOUND('',#54,.T.);
#37=FACE_OUTER_BOUND('',#55,.T.);
#38=FACE_OUTER_BOUND('',#56,.T.);
#39=FACE_OUTER_BOUND('',#57,.T.);
#40=FACE_OUTER_BOUND('',#58,.T.);
#41=FACE_OUTER_BOUND('',#59,.T.);
#42=FACE_OUTER_BOUND('',#60,.T.);
#43=FACE_OUTER_BOUND('',#61,.T.);
#44=FACE_OUTER_BOUND('',#62,.T.);
#45=FACE_OUTER_BOUND('',#63,.T.);
#46=FACE_OUTER_BOUND('',#64,.T.);
#47=EDGE_LOOP('',(#217,#218,#219,#220,#221,#222,#223,#224,#225,#226,#227,
#228,#229,#230,#231,#232));
#48=EDGE_LOOP('',(#233,#234,#235,#236));
#49=EDGE_LOOP('',(#237,#238,#239,#240));
#50=EDGE_LOOP('',(#241,#242,#243,#244));
#51=EDGE_LOOP('',(#245,#246,#247,#248));
#52=EDGE_LOOP('',(#249,#250,#251,#252));
#53=EDGE_LOOP('',(#253,#254,#255,#256));
#54=EDGE_LOOP('',(#257,#258,#259,#260));
#55=EDGE_LOOP('',(#261,#262,#263,#264));
#56=EDGE_LOOP('',(#265,#266,#267,#268));
#57=EDGE_LOOP('',(#269,#270,#271,#272));
#58=EDGE_LOOP('',(#273,#274,#275,#276));
#59=EDGE_LOOP('',(#277,#278,#279,#280));
#60=EDGE_LOOP('',(#281,#282,#283,#284));
#61=EDGE_LOOP('',(#285,#286,#287,#288));
#62=EDGE_LOOP('',(#289,#290,#291,#292));
#63=EDGE_LOOP('',(#293,#294,#295,#296,#297,#298,#299,#300,#301,#302,#303,
#304,#305,#306,#307,#308));
#64=EDGE_LOOP('',(#309,#310,#311,#312));
#65=CIRCLE('',#340,0.5);
#66=CIRCLE('',#341,12.6);
#67=CIRCLE('',#342,0.5);
#68=CIRCLE('',#343,0.3);
#69=CIRCLE('',#344,14.3);
#70=CIRCLE('',#345,0.3);
#71=CIRCLE('',#346,0.5);
#72=CIRCLE('',#347,12.6);
#73=CIRCLE('',#348,0.499999999999999);
#74=CIRCLE('',#349,1.5);
#75=CIRCLE('',#350,16.5);
#76=CIRCLE('',#351,1.5);
#77=CIRCLE('',#353,1.5);
#78=CIRCLE('',#356,0.500000000000001);
#79=CIRCLE('',#358,12.6);
#80=CIRCLE('',#360,0.5);
#81=CIRCLE('',#363,0.299999999999999);
#82=CIRCLE('',#365,14.3);
#83=CIRCLE('',#367,0.3);
#84=CIRCLE('',#370,0.500000000000001);
#85=CIRCLE('',#372,12.6);
#86=CIRCLE('',#374,0.5);
#87=CIRCLE('',#377,1.5);
#88=CIRCLE('',#379,16.5);
#89=LINE('',#495,#113);
#90=LINE('',#503,#114);
#91=LINE('',#511,#115);
#92=LINE('',#519,#116);
#93=LINE('',#527,#117);
#94=LINE('',#530,#118);
#95=LINE('',#533,#119);
#96=LINE('',#534,#120);
#97=LINE('',#538,#121);
#98=LINE('',#542,#122);
#99=LINE('',#546,#123);
#100=LINE('',#549,#124);
#101=LINE('',#550,#125);
#102=LINE('',#554,#126);
#103=LINE('',#558,#127);
#104=LINE('',#562,#128);
#105=LINE('',#565,#129);
#106=LINE('',#566,#130);
#107=LINE('',#570,#131);
#108=LINE('',#574,#132);
#109=LINE('',#578,#133);
#110=LINE('',#581,#134);
#111=LINE('',#582,#135);
#112=LINE('',#585,#136);
#113=VECTOR('',#385,1.87977043681843);
#114=VECTOR('',#392,0.828340098518674);
#115=VECTOR('',#399,0.829642217839623);
#116=VECTOR('',#406,1.88102874227271);
#117=VECTOR('',#415,20.);
#118=VECTOR('',#418,20.);
#119=VECTOR('',#421,1.87977043681843);
#120=VECTOR('',#422,20.);
#121=VECTOR('',#427,20.);
#122=VECTOR('',#432,20.);
#123=VECTOR('',#437,20.);
#124=VECTOR('',#440,0.828340098518675);
#125=VECTOR('',#441,20.);
#126=VECTOR('',#446,20.);
#127=VECTOR('',#451,20.);
#128=VECTOR('',#456,20.);
#129=VECTOR('',#459,0.829642217839623);
#130=VECTOR('',#460,20.);
#131=VECTOR('',#465,20.);
#132=VECTOR('',#470,20.);
#133=VECTOR('',#475,20.);
#134=VECTOR('',#478,1.88102874227271);
#135=VECTOR('',#479,20.);
#136=VECTOR('',#482,20.);
#137=VERTEX_POINT('',#493);
#138=VERTEX_POINT('',#494);
#139=VERTEX_POINT('',#496);
#140=VERTEX_POINT('',#498);
#141=VERTEX_POINT('',#500);
#142=VERTEX_POINT('',#502);
#143=VERTEX_POINT('',#504);
#144=VERTEX_POINT('',#506);
#145=VERTEX_POINT('',#508);
#146=VERTEX_POINT('',#510);
#147=VERTEX_POINT('',#512);
#148=VERTEX_POINT('',#514);
#149=VERTEX_POINT('',#516);
#150=VERTEX_POINT('',#518);
#151=VERTEX_POINT('',#520);
#152=VERTEX_POINT('',#522);
#153=VERTEX_POINT('',#526);
#154=VERTEX_POINT('',#528);
#155=VERTEX_POINT('',#532);
#156=VERTEX_POINT('',#536);
#157=VERTEX_POINT('',#540);
#158=VERTEX_POINT('',#544);
#159=VERTEX_POINT('',#548);
#160=VERTEX_POINT('',#552);
#161=VERTEX_POINT('',#556);
#162=VERTEX_POINT('',#560);
#163=VERTEX_POINT('',#564);
#164=VERTEX_POINT('',#568);
#165=VERTEX_POINT('',#572);
#166=VERTEX_POINT('',#576);
#167=VERTEX_POINT('',#580);
#168=VERTEX_POINT('',#584);
#169=EDGE_CURVE('',#137,#138,#89,.T.);
#170=EDGE_CURVE('',#138,#139,#65,.T.);
#171=EDGE_CURVE('',#140,#139,#66,.T.);
#172=EDGE_CURVE('',#140,#141,#67,.T.);
#173=EDGE_CURVE('',#142,#141,#90,.T.);
#174=EDGE_CURVE('',#142,#143,#68,.T.);
#175=EDGE_CURVE('',#143,#144,#69,.T.);
#176=EDGE_CURVE('',#144,#145,#70,.T.);
#177=EDGE_CURVE('',#146,#145,#91,.T.);
#178=EDGE_CURVE('',#146,#147,#71,.T.);
#179=EDGE_CURVE('',#148,#147,#72,.T.);
#180=EDGE_CURVE('',#148,#149,#73,.T.);
#181=EDGE_CURVE('',#149,#150,#92,.T.);
#182=EDGE_CURVE('',#150,#151,#74,.T.);
#183=EDGE_CURVE('',#151,#152,#75,.T.);
#184=EDGE_CURVE('',#152,#137,#76,.T.);
#185=EDGE_CURVE('',#153,#152,#93,.T.);
#186=EDGE_CURVE('',#154,#153,#77,.T.);
#187=EDGE_CURVE('',#154,#137,#94,.T.);
#188=EDGE_CURVE('',#155,#154,#95,.T.);
#189=EDGE_CURVE('',#155,#138,#96,.T.);
#190=EDGE_CURVE('',#156,#155,#78,.T.);
#191=EDGE_CURVE('',#156,#139,#97,.T.);
#192=EDGE_CURVE('',#157,#156,#79,.T.);
#193=EDGE_CURVE('',#157,#140,#98,.T.);
#194=EDGE_CURVE('',#158,#157,#80,.T.);
#195=EDGE_CURVE('',#158,#141,#99,.T.);
#196=EDGE_CURVE('',#159,#158,#100,.T.);
#197=EDGE_CURVE('',#159,#142,#101,.T.);
#198=EDGE_CURVE('',#160,#159,#81,.T.);
#199=EDGE_CURVE('',#160,#143,#102,.T.);
#200=EDGE_CURVE('',#161,#160,#82,.T.);
#201=EDGE_CURVE('',#144,#161,#103,.T.);
#202=EDGE_CURVE('',#162,#161,#83,.T.);
#203=EDGE_CURVE('',#145,#162,#104,.T.);
#204=EDGE_CURVE('',#163,#162,#105,.T.);
#205=EDGE_CURVE('',#163,#146,#106,.T.);
#206=EDGE_CURVE('',#164,#163,#84,.T.);
#207=EDGE_CURVE('',#164,#147,#107,.T.);
#208=EDGE_CURVE('',#165,#164,#85,.T.);
#209=EDGE_CURVE('',#165,#148,#108,.T.);
#210=EDGE_CURVE('',#166,#165,#86,.T.);
#211=EDGE_CURVE('',#166,#149,#109,.T.);
#212=EDGE_CURVE('',#167,#166,#110,.T.);
#213=EDGE_CURVE('',#150,#167,#111,.T.);
#214=EDGE_CURVE('',#151,#168,#112,.T.);
#215=EDGE_CURVE('',#168,#167,#87,.T.);
#216=EDGE_CURVE('',#153,#168,#88,.T.);
#217=ORIENTED_EDGE('',*,*,#169,.T.);
#218=ORIENTED_EDGE('',*,*,#170,.T.);
#219=ORIENTED_EDGE('',*,*,#171,.F.);
#220=ORIENTED_EDGE('',*,*,#172,.T.);
#221=ORIENTED_EDGE('',*,*,#173,.F.);
#222=ORIENTED_EDGE('',*,*,#174,.T.);
#223=ORIENTED_EDGE('',*,*,#175,.T.);
#224=ORIENTED_EDGE('',*,*,#176,.T.);
#225=ORIENTED_EDGE('',*,*,#177,.F.);
#226=ORIENTED_EDGE('',*,*,#178,.T.);
#227=ORIENTED_EDGE('',*,*,#179,.F.);
#228=ORIENTED_EDGE('',*,*,#180,.T.);
#229=ORIENTED_EDGE('',*,*,#181,.T.);
#230=ORIENTED_EDGE('',*,*,#182,.T.);
#231=ORIENTED_EDGE('',*,*,#183,.T.);
#232=ORIENTED_EDGE('',*,*,#184,.T.);
#233=ORIENTED_EDGE('',*,*,#185,.F.);
#234=ORIENTED_EDGE('',*,*,#186,.F.);
#235=ORIENTED_EDGE('',*,*,#187,.T.);
#236=ORIENTED_EDGE('',*,*,#184,.F.);
#237=ORIENTED_EDGE('',*,*,#188,.F.);
#238=ORIENTED_EDGE('',*,*,#189,.T.);
#239=ORIENTED_EDGE('',*,*,#169,.F.);
#240=ORIENTED_EDGE('',*,*,#187,.F.);
#241=ORIENTED_EDGE('',*,*,#189,.F.);
#242=ORIENTED_EDGE('',*,*,#190,.F.);
#243=ORIENTED_EDGE('',*,*,#191,.T.);
#244=ORIENTED_EDGE('',*,*,#170,.F.);
#245=ORIENTED_EDGE('',*,*,#171,.T.);
#246=ORIENTED_EDGE('',*,*,#191,.F.);
#247=ORIENTED_EDGE('',*,*,#192,.F.);
#248=ORIENTED_EDGE('',*,*,#193,.T.);
#249=ORIENTED_EDGE('',*,*,#193,.F.);
#250=ORIENTED_EDGE('',*,*,#194,.F.);
#251=ORIENTED_EDGE('',*,*,#195,.T.);
#252=ORIENTED_EDGE('',*,*,#172,.F.);
#253=ORIENTED_EDGE('',*,*,#196,.F.);
#254=ORIENTED_EDGE('',*,*,#197,.T.);
#255=ORIENTED_EDGE('',*,*,#173,.T.);
#256=ORIENTED_EDGE('',*,*,#195,.F.);
#257=ORIENTED_EDGE('',*,*,#174,.F.);
#258=ORIENTED_EDGE('',*,*,#197,.F.);
#259=ORIENTED_EDGE('',*,*,#198,.F.);
#260=ORIENTED_EDGE('',*,*,#199,.T.);
#261=ORIENTED_EDGE('',*,*,#200,.F.);
#262=ORIENTED_EDGE('',*,*,#201,.F.);
#263=ORIENTED_EDGE('',*,*,#175,.F.);
#264=ORIENTED_EDGE('',*,*,#199,.F.);
#265=ORIENTED_EDGE('',*,*,#202,.F.);
#266=ORIENTED_EDGE('',*,*,#203,.F.);
#267=ORIENTED_EDGE('',*,*,#176,.F.);
#268=ORIENTED_EDGE('',*,*,#201,.T.);
#269=ORIENTED_EDGE('',*,*,#177,.T.);
#270=ORIENTED_EDGE('',*,*,#203,.T.);
#271=ORIENTED_EDGE('',*,*,#204,.F.);
#272=ORIENTED_EDGE('',*,*,#205,.T.);
#273=ORIENTED_EDGE('',*,*,#205,.F.);
#274=ORIENTED_EDGE('',*,*,#206,.F.);
#275=ORIENTED_EDGE('',*,*,#207,.T.);
#276=ORIENTED_EDGE('',*,*,#178,.F.);
#277=ORIENTED_EDGE('',*,*,#208,.F.);
#278=ORIENTED_EDGE('',*,*,#209,.T.);
#279=ORIENTED_EDGE('',*,*,#179,.T.);
#280=ORIENTED_EDGE('',*,*,#207,.F.);
#281=ORIENTED_EDGE('',*,*,#209,.F.);
#282=ORIENTED_EDGE('',*,*,#210,.F.);
#283=ORIENTED_EDGE('',*,*,#211,.T.);
#284=ORIENTED_EDGE('',*,*,#180,.F.);
#285=ORIENTED_EDGE('',*,*,#181,.F.);
#286=ORIENTED_EDGE('',*,*,#211,.F.);
#287=ORIENTED_EDGE('',*,*,#212,.F.);
#288=ORIENTED_EDGE('',*,*,#213,.F.);
#289=ORIENTED_EDGE('',*,*,#214,.F.);
#290=ORIENTED_EDGE('',*,*,#182,.F.);
#291=ORIENTED_EDGE('',*,*,#213,.T.);
#292=ORIENTED_EDGE('',*,*,#215,.F.);
#293=ORIENTED_EDGE('',*,*,#216,.T.);
#294=ORIENTED_EDGE('',*,*,#215,.T.);
#295=ORIENTED_EDGE('',*,*,#212,.T.);
#296=ORIENTED_EDGE('',*,*,#210,.T.);
#297=ORIENTED_EDGE('',*,*,#208,.T.);
#298=ORIENTED_EDGE('',*,*,#206,.T.);
#299=ORIENTED_EDGE('',*,*,#204,.T.);
#300=ORIENTED_EDGE('',*,*,#202,.T.);
#301=ORIENTED_EDGE('',*,*,#200,.T.);
#302=ORIENTED_EDGE('',*,*,#198,.T.);
#303=ORIENTED_EDGE('',*,*,#196,.T.);
#304=ORIENTED_EDGE('',*,*,#194,.T.);
#305=ORIENTED_EDGE('',*,*,#192,.T.);
#306=ORIENTED_EDGE('',*,*,#190,.T.);
#307=ORIENTED_EDGE('',*,*,#188,.T.);
#308=ORIENTED_EDGE('',*,*,#186,.T.);
#309=ORIENTED_EDGE('',*,*,#183,.F.);
#310=ORIENTED_EDGE('',*,*,#214,.T.);
#311=ORIENTED_EDGE('',*,*,#216,.F.);
#312=ORIENTED_EDGE('',*,*,#185,.T.);
#313=PLANE('',#339);
#314=PLANE('',#354);
#315=PLANE('',#361);
#316=PLANE('',#368);
#317=PLANE('',#375);
#318=PLANE('',#378);
#319=ADVANCED_FACE('',(#29),#313,.F.);
#320=ADVANCED_FACE('',(#30),#17,.T.);
#321=ADVANCED_FACE('',(#31),#314,.F.);
#322=ADVANCED_FACE('',(#32),#18,.T.);
#323=ADVANCED_FACE('',(#33),#19,.F.);
#324=ADVANCED_FACE('',(#34),#20,.T.);
#325=ADVANCED_FACE('',(#35),#315,.T.);
#326=ADVANCED_FACE('',(#36),#21,.F.);
#327=ADVANCED_FACE('',(#37),#22,.F.);
#328=ADVANCED_FACE('',(#38),#23,.F.);
#329=ADVANCED_FACE('',(#39),#316,.T.);
#330=ADVANCED_FACE('',(#40),#24,.T.);
#331=ADVANCED_FACE('',(#41),#25,.F.);
#332=ADVANCED_FACE('',(#42),#26,.T.);
#333=ADVANCED_FACE('',(#43),#317,.F.);
#334=ADVANCED_FACE('',(#44),#27,.T.);
#335=ADVANCED_FACE('',(#45),#318,.T.);
#336=ADVANCED_FACE('',(#46),#28,.T.);
#337=CLOSED_SHELL('',(#319,#320,#321,#322,#323,#324,#325,#326,#327,#328,
#329,#330,#331,#332,#333,#334,#335,#336));
#338=AXIS2_PLACEMENT_3D('placement',#491,#381,#382);
#339=AXIS2_PLACEMENT_3D('',#492,#383,#384);
#340=AXIS2_PLACEMENT_3D('',#497,#386,#387);
#341=AXIS2_PLACEMENT_3D('',#499,#388,#389);
#342=AXIS2_PLACEMENT_3D('',#501,#390,#391);
#343=AXIS2_PLACEMENT_3D('',#505,#393,#394);
#344=AXIS2_PLACEMENT_3D('',#507,#395,#396);
#345=AXIS2_PLACEMENT_3D('',#509,#397,#398);
#346=AXIS2_PLACEMENT_3D('',#513,#400,#401);
#347=AXIS2_PLACEMENT_3D('',#515,#402,#403);
#348=AXIS2_PLACEMENT_3D('',#517,#404,#405);
#349=AXIS2_PLACEMENT_3D('',#521,#407,#408);
#350=AXIS2_PLACEMENT_3D('',#523,#409,#410);
#351=AXIS2_PLACEMENT_3D('',#524,#411,#412);
#352=AXIS2_PLACEMENT_3D('',#525,#413,#414);
#353=AXIS2_PLACEMENT_3D('',#529,#416,#417);
#354=AXIS2_PLACEMENT_3D('',#531,#419,#420);
#355=AXIS2_PLACEMENT_3D('',#535,#423,#424);
#356=AXIS2_PLACEMENT_3D('',#537,#425,#426);
#357=AXIS2_PLACEMENT_3D('',#539,#428,#429);
#358=AXIS2_PLACEMENT_3D('',#541,#430,#431);
#359=AXIS2_PLACEMENT_3D('',#543,#433,#434);
#360=AXIS2_PLACEMENT_3D('',#545,#435,#436);
#361=AXIS2_PLACEMENT_3D('',#547,#438,#439);
#362=AXIS2_PLACEMENT_3D('',#551,#442,#443);
#363=AXIS2_PLACEMENT_3D('',#553,#444,#445);
#364=AXIS2_PLACEMENT_3D('',#555,#447,#448);
#365=AXIS2_PLACEMENT_3D('',#557,#449,#450);
#366=AXIS2_PLACEMENT_3D('',#559,#452,#453);
#367=AXIS2_PLACEMENT_3D('',#561,#454,#455);
#368=AXIS2_PLACEMENT_3D('',#563,#457,#458);
#369=AXIS2_PLACEMENT_3D('',#567,#461,#462);
#370=AXIS2_PLACEMENT_3D('',#569,#463,#464);
#371=AXIS2_PLACEMENT_3D('',#571,#466,#467);
#372=AXIS2_PLACEMENT_3D('',#573,#468,#469);
#373=AXIS2_PLACEMENT_3D('',#575,#471,#472);
#374=AXIS2_PLACEMENT_3D('',#577,#473,#474);
#375=AXIS2_PLACEMENT_3D('',#579,#476,#477);
#376=AXIS2_PLACEMENT_3D('',#583,#480,#481);
#377=AXIS2_PLACEMENT_3D('',#586,#483,#484);
#378=AXIS2_PLACEMENT_3D('',#587,#485,#486);
#379=AXIS2_PLACEMENT_3D('',#588,#487,#488);
#380=AXIS2_PLACEMENT_3D('',#589,#489,#490);
#381=DIRECTION('axis',(0.,0.,1.));
#382=DIRECTION('refdir',(1.,0.,0.));
#383=DIRECTION('center_axis',(0.,1.,0.));
#384=DIRECTION('ref_axis',(1.,0.,0.));
#385=DIRECTION('',(-0.469471562785903,2.83495814904951E-15,0.88294759285892));
#386=DIRECTION('center_axis',(0.,-1.,0.));
#387=DIRECTION('ref_axis',(0.882947592858921,0.,0.469471562785902));
#388=DIRECTION('center_axis',(0.,-1.,0.));
#389=DIRECTION('ref_axis',(0.511300386560321,0.,-0.859402068128339));
#390=DIRECTION('center_axis',(0.,-1.,0.));
#391=DIRECTION('ref_axis',(-0.51130038656032,0.,0.85940206812834));
#392=DIRECTION('',(-0.469471562785892,0.,0.882947592858926));
#393=DIRECTION('center_axis',(0.,1.,0.));
#394=DIRECTION('ref_axis',(0.882947592858928,0.,0.469471562785889));
#395=DIRECTION('center_axis',(0.,1.,0.));
#396=DIRECTION('ref_axis',(0.468850984507572,0.,-0.883277280544609));
#397=DIRECTION('center_axis',(1.22072140810797E-17,1.,0.));
#398=DIRECTION('ref_axis',(0.468850984507555,0.,0.883277280544618));
#399=DIRECTION('',(0.469471562785892,-8.56444766769878E-15,0.882947592858926));
#400=DIRECTION('center_axis',(-1.22072140810797E-17,-1.,2.44144281621593E-17));
#401=DIRECTION('ref_axis',(-0.882947592858928,0.,0.469471562785888));
#402=DIRECTION('center_axis',(0.,-1.,0.));
#403=DIRECTION('ref_axis',(0.562916519391494,0.,0.826513758019892));
#404=DIRECTION('center_axis',(0.,-1.,0.));
#405=DIRECTION('ref_axis',(-0.562916519391513,0.,-0.82651375801988));
#406=DIRECTION('',(0.469471562785888,0.,0.882947592858928));
#407=DIRECTION('center_axis',(0.,-1.,0.));
#408=DIRECTION('ref_axis',(0.882947592858931,0.,-0.469471562785883));
#409=DIRECTION('center_axis',(0.,-1.,0.));
#410=DIRECTION('ref_axis',(0.503846865822185,0.,0.863792993605043));
#411=DIRECTION('center_axis',(0.,-1.,0.));
#412=DIRECTION('ref_axis',(0.503846865822186,0.,-0.863792993605042));
#413=DIRECTION('center_axis',(0.,-1.,0.));
#414=DIRECTION('ref_axis',(0.503846865822188,0.,-0.863792993605041));
#415=DIRECTION('',(0.,-1.,0.));
#416=DIRECTION('center_axis',(0.,1.,0.));
#417=DIRECTION('ref_axis',(0.88294759285892,0.,0.469471562785904));
#418=DIRECTION('',(0.,-1.,0.));
#419=DIRECTION('center_axis',(-0.88294759285892,0.,-0.469471562785904));
#420=DIRECTION('ref_axis',(-0.469471562785904,0.,0.88294759285892));
#421=DIRECTION('',(0.469471562785904,-2.83495814904951E-15,-0.88294759285892));
#422=DIRECTION('',(0.,-1.,0.));
#423=DIRECTION('center_axis',(0.,-1.,0.));
#424=DIRECTION('ref_axis',(0.88294759285892,0.,0.469471562785905));
#425=DIRECTION('center_axis',(0.,1.,0.));
#426=DIRECTION('ref_axis',(-0.562961613943247,0.,0.826483043520201));
#427=DIRECTION('',(-1.33226762955019E-16,-1.,0.));
#428=DIRECTION('center_axis',(0.,1.,0.));
#429=DIRECTION('ref_axis',(1.,0.,0.));
#430=DIRECTION('center_axis',(0.,-1.,0.));
#431=DIRECTION('ref_axis',(0.511300386560321,0.,-0.859402068128339));
#432=DIRECTION('',(0.,-1.,0.));
#433=DIRECTION('center_axis',(0.,-1.,0.));
#434=DIRECTION('ref_axis',(-0.51130038656032,0.,0.85940206812834));
#435=DIRECTION('center_axis',(0.,1.,0.));
#436=DIRECTION('ref_axis',(-0.882947592858928,0.,-0.469471562785888));
#437=DIRECTION('',(-4.44089209850063E-17,-1.,0.));
#438=DIRECTION('center_axis',(-0.882947592858927,0.,-0.469471562785891));
#439=DIRECTION('ref_axis',(-0.469471562785891,0.,0.882947592858927));
#440=DIRECTION('',(-0.469471562785891,0.,0.882947592858927));
#441=DIRECTION('',(0.,-1.,1.77635683940025E-16));
#442=DIRECTION('center_axis',(0.,-1.,0.));
#443=DIRECTION('ref_axis',(0.468850984507586,0.,-0.883277280544602));
#444=DIRECTION('center_axis',(0.,-1.,0.));
#445=DIRECTION('ref_axis',(0.468850984507572,0.,-0.883277280544609));
#446=DIRECTION('',(8.88178419700125E-17,-1.,0.));
#447=DIRECTION('center_axis',(0.,1.,0.));
#448=DIRECTION('ref_axis',(-1.,0.,-1.89882151931499E-15));
#449=DIRECTION('center_axis',(0.,-1.,0.));
#450=DIRECTION('ref_axis',(0.468850984507569,0.,0.883277280544611));
#451=DIRECTION('',(0.,1.,0.));
#452=DIRECTION('center_axis',(1.22072140810797E-17,1.,0.));
#453=DIRECTION('ref_axis',(0.468850984507555,-5.72336434000871E-18,0.883277280544618));
#454=DIRECTION('center_axis',(-1.22072140810797E-17,-1.,0.));
#455=DIRECTION('ref_axis',(0.882947592858928,0.,-0.469471562785889));
#456=DIRECTION('',(4.44089209850063E-17,1.,8.88178419700125E-17));
#457=DIRECTION('center_axis',(-0.882947592858927,0.,0.469471562785891));
#458=DIRECTION('ref_axis',(0.469471562785891,0.,0.882947592858927));
#459=DIRECTION('',(0.469471562785892,-8.56444766769878E-15,0.882947592858927));
#460=DIRECTION('',(-4.44089209850063E-17,-1.,0.));
#461=DIRECTION('center_axis',(-1.22072140810797E-17,-1.,2.44144281621593E-17));
#462=DIRECTION('ref_axis',(-0.882947592858927,2.22402100322157E-17,0.469471562785891));
#463=DIRECTION('center_axis',(1.22072140810797E-17,1.,-2.44144281621593E-17));
#464=DIRECTION('ref_axis',(-0.511253721828062,0.,-0.85942982954803));
#465=DIRECTION('',(0.,-1.,0.));
#466=DIRECTION('center_axis',(0.,1.,0.));
#467=DIRECTION('ref_axis',(1.,0.,0.));
#468=DIRECTION('center_axis',(0.,-1.,0.));
#469=DIRECTION('ref_axis',(0.562916519391494,0.,0.826513758019892));
#470=DIRECTION('',(0.,-1.,0.));
#471=DIRECTION('center_axis',(0.,-1.,0.));
#472=DIRECTION('ref_axis',(-0.5629165193915,0.,-0.826513758019889));
#473=DIRECTION('center_axis',(0.,1.,0.));
#474=DIRECTION('ref_axis',(0.882947592858921,0.,-0.469471562785902));
#475=DIRECTION('',(0.,-1.,0.));
#476=DIRECTION('center_axis',(-0.882947592858928,0.,0.469471562785889));
#477=DIRECTION('ref_axis',(0.469471562785889,0.,0.882947592858928));
#478=DIRECTION('',(-0.469471562785888,0.,-0.882947592858928));
#479=DIRECTION('',(-8.88178419700125E-17,1.,0.));
#480=DIRECTION('center_axis',(0.,1.,0.));
#481=DIRECTION('ref_axis',(0.503846865822187,0.,0.863792993605041));
#482=DIRECTION('',(8.88178419700125E-17,1.,0.));
#483=DIRECTION('center_axis',(0.,1.,0.));
#484=DIRECTION('ref_axis',(0.503846865822184,0.,0.863792993605043));
#485=DIRECTION('center_axis',(0.,1.,0.));
#486=DIRECTION('ref_axis',(1.,0.,0.));
#487=DIRECTION('center_axis',(0.,1.,0.));
#488=DIRECTION('ref_axis',(0.503846865822186,0.,-0.863792993605042));
#489=DIRECTION('center_axis',(0.,1.,0.));
#490=DIRECTION('ref_axis',(-1.,0.,-5.66553889764798E-16));
#491=CARTESIAN_POINT('',(0.,0.,0.));
#492=CARTESIAN_POINT('Origin',(0.,-10.,0.));
#493=CARTESIAN_POINT('',(8.88212437662117,-9.99999999999999,-12.2526875598968));
#494=CARTESIAN_POINT('',(7.99962561196928,-10.,-10.5929487775806));
#495=CARTESIAN_POINT('',(8.88212437662117,-10.,-12.2526875598968));
#496=CARTESIAN_POINT('',(7.27667100856819,-10.,-10.4144430372134));
#497=CARTESIAN_POINT('Origin',(7.55815181553982,-10.,-10.8276845589735));
#498=CARTESIAN_POINT('',(6.62573954354321,-10.,-10.8292227472761));
#499=CARTESIAN_POINT('Origin',(0.18335467288317,-10.,-0.00075668885898));
#500=CARTESIAN_POINT('',(6.43991594039391,-10.,-11.4936595627332));
#501=CARTESIAN_POINT('Origin',(6.88138973682337,-10.,-11.2589237813402));
#502=CARTESIAN_POINT('',(6.82879806096369,-10.,-12.2250404587888));
#503=CARTESIAN_POINT('',(6.82879806096369,-10.,-12.2250404587888));
#504=CARTESIAN_POINT('',(6.70456907845829,-10.,-12.6308651117879));
#505=CARTESIAN_POINT('Origin',(6.56391378310602,-10.,-12.3658819276245));
#506=CARTESIAN_POINT('',(6.70456907845824,-10.,12.6308651117879));
#507=CARTESIAN_POINT('Origin',(0.,-10.,0.));
#508=CARTESIAN_POINT('',(6.82879806096365,-10.,12.2250404587888));
#509=CARTESIAN_POINT('Origin',(6.56391378310598,-10.,12.3658819276245));
#510=CARTESIAN_POINT('',(6.43930463240133,-10.,11.4925098596131));
#511=CARTESIAN_POINT('',(6.43930463240133,-10.,11.4925098596131));
#512=CARTESIAN_POINT('',(6.62515156791677,-10.,10.8280591634462));
#513=CARTESIAN_POINT('Origin',(6.8807784288308,-10.,11.2577740782202));
#514=CARTESIAN_POINT('',(7.276102817216,-10.,10.4133166621917));
#515=CARTESIAN_POINT('Origin',(0.18335467288317,-10.,-0.00075668885898));
#516=CARTESIAN_POINT('',(7.99903487334122,-10.,10.5918377598087));
#517=CARTESIAN_POINT('Origin',(7.55756107691176,-10.,10.8265735412016));
#518=CARTESIAN_POINT('',(8.88212437662117,-10.,12.2526875598968));
#519=CARTESIAN_POINT('',(7.99903487334122,-10.,10.5918377598087));
#520=CARTESIAN_POINT('',(8.31347328606605,-10.,14.2525843944832));
#521=CARTESIAN_POINT('Origin',(7.55770298733277,-10.,12.9568949040756));
#522=CARTESIAN_POINT('',(8.31347328606607,-9.99999999999999,-14.2525843944832));
#523=CARTESIAN_POINT('Origin',(0.,-10.,0.));
#524=CARTESIAN_POINT('Origin',(7.55770298733279,-9.99999999999999,-12.9568949040756));
#525=CARTESIAN_POINT('Origin',(7.55770298733279,36.0720000000001,-12.9568949040756));
#526=CARTESIAN_POINT('',(8.31347328606607,10.,-14.2525843944832));
#527=CARTESIAN_POINT('',(8.31347328606606,10.,-14.2525843944832));
#528=CARTESIAN_POINT('',(8.88212437662117,10.,-12.2526875598968));
#529=CARTESIAN_POINT('Origin',(7.55770298733279,10.,-12.9568949040756));
#530=CARTESIAN_POINT('',(8.88212437662117,10.,-12.2526875598968));
#531=CARTESIAN_POINT('Origin',(9.52938088230292,-12.5,-13.47));
#532=CARTESIAN_POINT('',(7.99962561196928,10.,-10.5929487775806));
#533=CARTESIAN_POINT('',(7.99962561196928,10.,-10.5929487775806));
#534=CARTESIAN_POINT('',(7.99962561196928,10.,-10.5929487775806));
#535=CARTESIAN_POINT('Origin',(7.55815181553982,36.0720000000001,-10.8276845589735));
#536=CARTESIAN_POINT('',(7.27667100856819,10.,-10.4144430372134));
#537=CARTESIAN_POINT('Origin',(7.55815181553982,10.,-10.8276845589735));
#538=CARTESIAN_POINT('',(7.27667100856819,10.,-10.4144430372134));
#539=CARTESIAN_POINT('Origin',(0.18335467288317,-10.,-0.00075668885898));
#540=CARTESIAN_POINT('',(6.62573954354322,10.,-10.8292227472761));
#541=CARTESIAN_POINT('Origin',(0.18335467288317,10.,-0.00075668885898));
#542=CARTESIAN_POINT('',(6.62573954354321,10.,-10.8292227472761));
#543=CARTESIAN_POINT('Origin',(6.88138973682337,36.0720000000001,-11.2589237813402));
#544=CARTESIAN_POINT('',(6.43991594039391,10.,-11.4936595627332));
#545=CARTESIAN_POINT('Origin',(6.88138973682337,10.,-11.2589237813402));
#546=CARTESIAN_POINT('',(6.43991594039391,10.,-11.4936595627332));
#547=CARTESIAN_POINT('Origin',(8.00236294083404,-10.,-14.4321949871619));
#548=CARTESIAN_POINT('',(6.82879806096369,10.,-12.2250404587888));
#549=CARTESIAN_POINT('',(6.82879806096369,10.,-12.2250404587888));
#550=CARTESIAN_POINT('',(6.82879806096369,10.,-12.2250404587888));
#551=CARTESIAN_POINT('Origin',(6.56391378310602,36.072,-12.3658819276245));
#552=CARTESIAN_POINT('',(6.70456907845828,10.,-12.6308651117879));
#553=CARTESIAN_POINT('Origin',(6.56391378310602,10.,-12.3658819276245));
#554=CARTESIAN_POINT('',(6.70456907845828,10.,-12.6308651117879));
#555=CARTESIAN_POINT('Origin',(0.,-10.,0.));
#556=CARTESIAN_POINT('',(6.70456907845824,10.,12.6308651117879));
#557=CARTESIAN_POINT('Origin',(0.,10.,0.));
#558=CARTESIAN_POINT('',(6.70456907845824,-10.,12.6308651117879));
#559=CARTESIAN_POINT('Origin',(6.56391378310598,-36.072,12.3658819276245));
#560=CARTESIAN_POINT('',(6.82879806096365,10.,12.2250404587888));
#561=CARTESIAN_POINT('Origin',(6.56391378310598,10.,12.3658819276245));
#562=CARTESIAN_POINT('',(6.82879806096365,-10.,12.2250404587888));
#563=CARTESIAN_POINT('Origin',(6.14111914557477,-10.,10.9317045229562));
#564=CARTESIAN_POINT('',(6.43930463240133,10.,11.4925098596131));
#565=CARTESIAN_POINT('',(6.43930463240133,10.,11.4925098596131));
#566=CARTESIAN_POINT('',(6.43930463240133,10.,11.4925098596131));
#567=CARTESIAN_POINT('Origin',(6.8807784288308,36.0720000000001,11.2577740782202));
#568=CARTESIAN_POINT('',(6.62515156791676,10.,10.8280591634462));
#569=CARTESIAN_POINT('Origin',(6.8807784288308,10.,11.2577740782202));
#570=CARTESIAN_POINT('',(6.62515156791676,10.,10.8280591634462));
#571=CARTESIAN_POINT('Origin',(0.18335467288317,-10.,-0.00075668885898));
#572=CARTESIAN_POINT('',(7.276102817216,10.,10.4133166621917));
#573=CARTESIAN_POINT('Origin',(0.18335467288317,10.,-0.00075668885898));
#574=CARTESIAN_POINT('',(7.276102817216,10.,10.4133166621917));
#575=CARTESIAN_POINT('Origin',(7.55756107691176,36.0720000000001,10.8265735412016));
#576=CARTESIAN_POINT('',(7.99903487334122,10.,10.5918377598087));
#577=CARTESIAN_POINT('Origin',(7.55756107691176,10.,10.8265735412016));
#578=CARTESIAN_POINT('',(7.99903487334122,10.,10.5918377598087));
#579=CARTESIAN_POINT('Origin',(8.43938529637114,-12.5,11.4200164544275));
#580=CARTESIAN_POINT('',(8.88212437662117,10.,12.2526875598968));
#581=CARTESIAN_POINT('',(8.88212437662117,10.,12.2526875598968));
#582=CARTESIAN_POINT('',(8.88212437662117,-10.,12.2526875598968));
#583=CARTESIAN_POINT('Origin',(7.55770298733277,-36.0720000000001,12.9568949040756));
#584=CARTESIAN_POINT('',(8.31347328606605,10.,14.2525843944832));
#585=CARTESIAN_POINT('',(8.31347328606605,-10.,14.2525843944832));
#586=CARTESIAN_POINT('Origin',(7.55770298733277,10.,12.9568949040756));
#587=CARTESIAN_POINT('Origin',(0.,10.,0.));
#588=CARTESIAN_POINT('Origin',(0.,10.,0.));
#589=CARTESIAN_POINT('Origin',(0.,-10.,0.));
#590=UNCERTAINTY_MEASURE_WITH_UNIT(LENGTH_MEASURE(0.01),#594,
'DISTANCE_ACCURACY_VALUE',
'Maximum model space distance between geometric entities at asserted c
onnectivities');
#591=UNCERTAINTY_MEASURE_WITH_UNIT(LENGTH_MEASURE(0.01),#594,
'DISTANCE_ACCURACY_VALUE',
'Maximum model space distance between geometric entities at asserted c
onnectivities');
#592=(
GEOMETRIC_REPRESENTATION_CONTEXT(3)
GLOBAL_UNCERTAINTY_ASSIGNED_CONTEXT((#590))
GLOBAL_UNIT_ASSIGNED_CONTEXT((#594,#595,#596))
REPRESENTATION_CONTEXT('','3D')
);
#593=(
GEOMETRIC_REPRESENTATION_CONTEXT(3)
GLOBAL_UNCERTAINTY_ASSIGNED_CONTEXT((#591))
GLOBAL_UNIT_ASSIGNED_CONTEXT((#594,#595,#596))
REPRESENTATION_CONTEXT('','3D')
);
#594=(
LENGTH_UNIT()
NAMED_UNIT(*)
SI_UNIT(.MILLI.,.METRE.)
);
#595=(
NAMED_UNIT(*)
PLANE_ANGLE_UNIT()
SI_UNIT($,.RADIAN.)
);
#596=(
NAMED_UNIT(*)
SI_UNIT($,.STERADIAN.)
SOLID_ANGLE_UNIT()
);
#597=SHAPE_DEFINITION_REPRESENTATION(#598,#599);
#598=PRODUCT_DEFINITION_SHAPE('',$,#601);
#599=SHAPE_REPRESENTATION('',(#338),#592);
#600=PRODUCT_DEFINITION_CONTEXT('part definition',#605,'design');
#601=PRODUCT_DEFINITION('Product','Product',#602,#600);
#602=PRODUCT_DEFINITION_FORMATION('',$,#607);
#603=PRODUCT_RELATED_PRODUCT_CATEGORY('Product','Product',(#607));
#604=APPLICATION_PROTOCOL_DEFINITION('international standard',
'automotive_design',2009,#605);
#605=APPLICATION_CONTEXT(
'Core Data for Automotive Mechanical Design Process');
#606=PRODUCT_CONTEXT('part definition',#605,'mechanical');
#607=PRODUCT('61D-010-2','61D-010-2',$,(#606));
#608=PRESENTATION_STYLE_ASSIGNMENT((#609));
#609=SURFACE_STYLE_USAGE(.BOTH.,#610);
#610=SURFACE_SIDE_STYLE('',(#611));
#611=SURFACE_STYLE_FILL_AREA(#612);
#612=FILL_AREA_STYLE('',(#613));
#613=FILL_AREA_STYLE_COLOUR('',#614);
#614=COLOUR_RGB('',1.,1.,1.);
ENDSEC;
END-ISO-10303-21;
