ISO-10303-21;
HEADER;
FILE_DESCRIPTION (( 'STEP AP203' ),
    '1' );
FILE_NAME ('97310A114_Oversized Washers.STEP',
    '2022-02-18T19:06:05',
    ( 'Administrator' ),
    ( 'Managed by Terraform' ),
    'SwSTEP 2.0',
    'SolidWorks 2017',
    '' );
FILE_SCHEMA (( 'CONFIG_CONTROL_DESIGN' ));
ENDSEC;

DATA;
#1 = APPROVAL_STATUS ( 'not_yet_approved' ) ;
#2 = COORDINATED_UNIVERSAL_TIME_OFFSET ( 6, 0, .BEHIND. ) ;
#3 = CIRCLE ( 'NONE', #153, 8.500000000000000000 ) ;
#4 = ADVANCED_FACE ( 'NONE', ( #98 ), #239, .T. ) ;
#5 = CALENDAR_DATE ( 2022, 18, 2 ) ;
#6 =( GEOMETRIC_REPRESENTATION_CONTEXT ( 3 ) GLOBAL_UNCERTAINTY_ASSIGNED_CONTEXT ( ( #155 ) ) GLOBAL_UNIT_ASSIGNED_CONTEXT ( ( #145, #105, #35 ) ) REPRESENTATION_CONTEXT ( 'NONE', 'WORKASPACE' ) );
#7 = APPROVAL_DATE_TIME ( #158, #26 ) ;
#8 = COORDINATED_UNIVERSAL_TIME_OFFSET ( 6, 0, .BEHIND. ) ;
#9 = ORIENTED_EDGE ( 'NONE', *, *, #99, .T. ) ;
#10 = DIRECTION ( 'NONE',  ( 1.000000000000000000, 0.0000000000000000000, 0.0000000000000000000 ) ) ;
#11 = PRODUCT_DEFINITION ( 'UNKNOWN', '', #80, #77 ) ;
#12 = CARTESIAN_POINT ( 'NONE',  ( 0.0000000000000000000, 0.0000000000000000000, -1.649999999999999900 ) ) ;
#13 = APPROVAL_PERSON_ORGANIZATION ( #57, #178, #74 ) ;
#14 = DIRECTION ( 'NONE',  ( 1.000000000000000000, 0.0000000000000000000, 0.0000000000000000000 ) ) ;
#15 = FACE_OUTER_BOUND ( 'NONE', #90, .T. ) ;
#16 = DIRECTION ( 'NONE',  ( 0.0000000000000000000, 0.0000000000000000000, 1.000000000000000000 ) ) ;
#17 = APPROVAL_ROLE ( '' ) ;
#18 = PERSON_AND_ORGANIZATION ( #179, #79 ) ;
#19 = ORIENTED_EDGE ( 'NONE', *, *, #116, .T. ) ;
#20 = ADVANCED_FACE ( 'NONE', ( #123, #25 ), #197, .T. ) ;
#21 = ADVANCED_FACE ( 'NONE', ( #15 ), #89, .F. ) ;
#22 = PERSON_AND_ORGANIZATION_ROLE ( 'classification_officer' ) ;
#23 = AXIS2_PLACEMENT_3D ( 'NONE', #248, #73, #132 ) ;
#24 = FACE_OUTER_BOUND ( 'NONE', #33, .T. ) ;
#25 = FACE_BOUND ( 'NONE', #112, .T. ) ;
#26 = APPROVAL ( #221, 'UNSPECIFIED' ) ;
#27 = CALENDAR_DATE ( 2022, 18, 2 ) ;
#28 = CIRCLE ( 'NONE', #196, 3.200000000000000200 ) ;
#29 = VERTEX_POINT ( 'NONE', #199 ) ;
#30 = CYLINDRICAL_SURFACE ( 'NONE', #191, 3.200000000000000200 ) ;
#31 = AXIS2_PLACEMENT_3D ( 'NONE', #246, #87, #143 ) ;
#32 = CARTESIAN_POINT ( 'NONE',  ( 8.500000000000000000, 0.0000000000000000000, -1.649999999999999900 ) ) ;
#33 = EDGE_LOOP ( 'NONE', ( #117, #78, #9, #63 ) ) ;
#34 = ORIENTED_EDGE ( 'NONE', *, *, #72, .T. ) ;
#35 =( NAMED_UNIT ( * ) SI_UNIT ( $, .STERADIAN. ) SOLID_ANGLE_UNIT ( ) );
#36 = ADVANCED_FACE ( 'NONE', ( #67, #127 ), #47, .F. ) ;
#37 = DIRECTION ( 'NONE',  ( 0.0000000000000000000, 0.0000000000000000000, 1.000000000000000000 ) ) ;
#38 = CC_DESIGN_DATE_AND_TIME_ASSIGNMENT ( #110, #180, ( #11 ) ) ;
#39 = ORIENTED_EDGE ( 'NONE', *, *, #238, .T. ) ;
#40 = EDGE_CURVE ( 'NONE', #213, #137, #41, .T. ) ;
#41 = CIRCLE ( 'NONE', #107, 3.200000000000000200 ) ;
#42 = CC_DESIGN_PERSON_AND_ORGANIZATION_ASSIGNMENT ( #175, #106, ( #80 ) ) ;
#43 = CIRCLE ( 'NONE', #135, 3.200000000000000200 ) ;
#44 = CYLINDRICAL_SURFACE ( 'NONE', #164, 8.500000000000000000 ) ;
#45 = VERTEX_POINT ( 'NONE', #86 ) ;
#46 = CARTESIAN_POINT ( 'NONE',  ( -8.500000000000000000, 1.040949779275250100E-015, -1.649999999999999900 ) ) ;
#47 = PLANE ( 'NONE',  #119 ) ;
#48 = DATE_AND_TIME ( #233, #227 ) ;
#49 = DIRECTION ( 'NONE',  ( 0.0000000000000000000, 0.0000000000000000000, 1.000000000000000000 ) ) ;
#50 = CC_DESIGN_APPROVAL ( #212, ( #80 ) ) ;
#51 = ORIENTED_EDGE ( 'NONE', *, *, #230, .T. ) ;
#52 = PERSON_AND_ORGANIZATION ( #179, #79 ) ;
#53 = LINE ( 'NONE', #201, #243 ) ;
#54 = MECHANICAL_CONTEXT ( 'NONE', #183, 'mechanical' ) ;
#55 = CARTESIAN_POINT ( 'NONE',  ( 0.0000000000000000000, 0.0000000000000000000, -1.649999999999999900 ) ) ;
#56 = ADVANCED_BREP_SHAPE_REPRESENTATION ( '97310A114_Oversized Washers', ( #205, #232 ), #6 ) ;
#57 = PERSON_AND_ORGANIZATION ( #179, #79 ) ;
#58 = CC_DESIGN_PERSON_AND_ORGANIZATION_ASSIGNMENT ( #18, #22, ( #130 ) ) ;
#59 = COORDINATED_UNIVERSAL_TIME_OFFSET ( 6, 0, .BEHIND. ) ;
#60 = ORIENTED_EDGE ( 'NONE', *, *, #184, .T. ) ;
#61 = DIRECTION ( 'NONE',  ( 0.0000000000000000000, 0.0000000000000000000, 1.000000000000000000 ) ) ;
#62 = CC_DESIGN_PERSON_AND_ORGANIZATION_ASSIGNMENT ( #229, #203, ( #141 ) ) ;
#63 = ORIENTED_EDGE ( 'NONE', *, *, #69, .T. ) ;
#64 = EDGE_CURVE ( 'NONE', #170, #113, #53, .T. ) ;
#65 = CARTESIAN_POINT ( 'NONE',  ( 0.0000000000000000000, 0.0000000000000000000, -1.649999999999999900 ) ) ;
#66 = LOCAL_TIME ( 13, 6, 5.000000000000000000, #2 ) ;
#67 = FACE_BOUND ( 'NONE', #152, .T. ) ;
#68 = CARTESIAN_POINT ( 'NONE',  ( -3.200000000000000200, 3.918869757271530500E-016, -1.649999999999999900 ) ) ;
#69 = EDGE_CURVE ( 'NONE', #45, #224, #43, .T. ) ;
#70 = DIRECTION ( 'NONE',  ( 0.0000000000000000000, 0.0000000000000000000, 1.000000000000000000 ) ) ;
#71 = DIRECTION ( 'NONE',  ( 1.000000000000000000, 0.0000000000000000000, 0.0000000000000000000 ) ) ;
#72 = EDGE_CURVE ( 'NONE', #137, #213, #28, .T. ) ;
#73 = DIRECTION ( 'NONE',  ( 0.0000000000000000000, 0.0000000000000000000, 1.000000000000000000 ) ) ;
#74 = APPROVAL_ROLE ( '' ) ;
#75 = APPROVAL_DATE_TIME ( #198, #212 ) ;
#76 = ORIENTED_EDGE ( 'NONE', *, *, #93, .F. ) ;
#77 = DESIGN_CONTEXT ( 'detailed design', #160, 'design' ) ;
#78 = ORIENTED_EDGE ( 'NONE', *, *, #72, .F. ) ;
#79 = ORGANIZATION ( 'UNSPECIFIED', 'UNSPECIFIED', '' ) ;
#80 = PRODUCT_DEFINITION_FORMATION_WITH_SPECIFIED_SOURCE ( 'ANY', '', #141, .NOT_KNOWN. ) ;
#81 = VERTEX_POINT ( 'NONE', #139 ) ;
#82 = ORIENTED_EDGE ( 'NONE', *, *, #69, .F. ) ;
#83 = DIRECTION ( 'NONE',  ( 1.000000000000000000, 0.0000000000000000000, -0.0000000000000000000 ) ) ;
#84 = CARTESIAN_POINT ( 'NONE',  ( 3.200000000000000200, 0.0000000000000000000, -1.649999999999999900 ) ) ;
#85 = ORIENTED_EDGE ( 'NONE', *, *, #40, .F. ) ;
#86 = CARTESIAN_POINT ( 'NONE',  ( 3.200000000000000200, 0.0000000000000000000, 1.649999999999999900 ) ) ;
#87 = DIRECTION ( 'NONE',  ( 0.0000000000000000000, 0.0000000000000000000, 1.000000000000000000 ) ) ;
#88 = CARTESIAN_POINT ( 'NONE',  ( 0.0000000000000000000, 0.0000000000000000000, -1.649999999999999900 ) ) ;
#89 = CYLINDRICAL_SURFACE ( 'NONE', #209, 3.200000000000000200 ) ;
#90 = EDGE_LOOP ( 'NONE', ( #85, #39, #19, #118 ) ) ;
#91 = CARTESIAN_POINT ( 'NONE',  ( 0.0000000000000000000, 0.0000000000000000000, 1.649999999999999900 ) ) ;
#92 = CARTESIAN_POINT ( 'NONE',  ( 0.0000000000000000000, 0.0000000000000000000, 0.0000000000000000000 ) ) ;
#93 = EDGE_CURVE ( 'NONE', #81, #29, #236, .T. ) ;
#94 = LOCAL_TIME ( 13, 6, 5.000000000000000000, #59 ) ;
#95 = ORIENTED_EDGE ( 'NONE', *, *, #235, .F. ) ;
#96 = AXIS2_PLACEMENT_3D ( 'NONE', #100, #101, #83 ) ;
#97 = PERSON_AND_ORGANIZATION ( #179, #79 ) ;
#98 = FACE_OUTER_BOUND ( 'NONE', #192, .T. ) ;
#99 = EDGE_CURVE ( 'NONE', #137, #45, #223, .T. ) ;
#100 = CARTESIAN_POINT ( 'NONE',  ( 0.0000000000000000000, 0.0000000000000000000, 1.649999999999999900 ) ) ;
#101 = DIRECTION ( 'NONE',  ( 0.0000000000000000000, 0.0000000000000000000, 1.000000000000000000 ) ) ;
#102 = CARTESIAN_POINT ( 'NONE',  ( 0.0000000000000000000, 0.0000000000000000000, -1.649999999999999900 ) ) ;
#103 = PRODUCT_RELATED_PRODUCT_CATEGORY ( 'detail', '', ( #141 ) ) ;
#104 = ORIENTED_EDGE ( 'NONE', *, *, #184, .F. ) ;
#105 =( NAMED_UNIT ( * ) PLANE_ANGLE_UNIT ( ) SI_UNIT ( $, .RADIAN. ) );
#106 = PERSON_AND_ORGANIZATION_ROLE ( 'creator' ) ;
#107 = AXIS2_PLACEMENT_3D ( 'NONE', #102, #240, #14 ) ;
#108 = DIRECTION ( 'NONE',  ( 1.000000000000000000, 0.0000000000000000000, 0.0000000000000000000 ) ) ;
#109 = DIRECTION ( 'NONE',  ( 1.000000000000000000, 0.0000000000000000000, 0.0000000000000000000 ) ) ;
#110 = DATE_AND_TIME ( #5, #66 ) ;
#111 = ORIENTED_EDGE ( 'NONE', *, *, #64, .T. ) ;
#112 = EDGE_LOOP ( 'NONE', ( #82, #171 ) ) ;
#113 = VERTEX_POINT ( 'NONE', #159 ) ;
#114 = ORIENTED_EDGE ( 'NONE', *, *, #149, .T. ) ;
#115 = CC_DESIGN_PERSON_AND_ORGANIZATION_ASSIGNMENT ( #142, #189, ( #80 ) ) ;
#116 = EDGE_CURVE ( 'NONE', #224, #45, #166, .T. ) ;
#117 = ORIENTED_EDGE ( 'NONE', *, *, #238, .F. ) ;
#118 = ORIENTED_EDGE ( 'NONE', *, *, #99, .F. ) ;
#119 = AXIS2_PLACEMENT_3D ( 'NONE', #12, #157, #140 ) ;
#120 = CARTESIAN_POINT ( 'NONE',  ( 0.0000000000000000000, 0.0000000000000000000, -1.649999999999999900 ) ) ;
#121 = CALENDAR_DATE ( 2022, 18, 2 ) ;
#122 = DIRECTION ( 'NONE',  ( 1.000000000000000000, 0.0000000000000000000, 0.0000000000000000000 ) ) ;
#123 = FACE_OUTER_BOUND ( 'NONE', #234, .T. ) ;
#124 = DIRECTION ( 'NONE',  ( 0.0000000000000000000, 0.0000000000000000000, 1.000000000000000000 ) ) ;
#125 = DIRECTION ( 'NONE',  ( 0.0000000000000000000, 0.0000000000000000000, 1.000000000000000000 ) ) ;
#126 = APPROVAL_STATUS ( 'not_yet_approved' ) ;
#127 = FACE_OUTER_BOUND ( 'NONE', #144, .T. ) ;
#128 = ORIENTED_EDGE ( 'NONE', *, *, #230, .F. ) ;
#129 = DIRECTION ( 'NONE',  ( 1.000000000000000000, 0.0000000000000000000, 0.0000000000000000000 ) ) ;
#130 = SECURITY_CLASSIFICATION ( '', '', #148 ) ;
#131 = CARTESIAN_POINT ( 'NONE',  ( 0.0000000000000000000, 0.0000000000000000000, -1.649999999999999900 ) ) ;
#132 = DIRECTION ( 'NONE',  ( 1.000000000000000000, 0.0000000000000000000, 0.0000000000000000000 ) ) ;
#133 = LOCAL_TIME ( 13, 6, 5.000000000000000000, #147 ) ;
#134 = VECTOR ( 'NONE', #49, 1000.000000000000000 ) ;
#135 = AXIS2_PLACEMENT_3D ( 'NONE', #172, #61, #215 ) ;
#136 = ORIENTED_EDGE ( 'NONE', *, *, #64, .F. ) ;
#137 = VERTEX_POINT ( 'NONE', #84 ) ;
#138 = CARTESIAN_POINT ( 'NONE',  ( 0.0000000000000000000, 0.0000000000000000000, -1.649999999999999900 ) ) ;
#139 = CARTESIAN_POINT ( 'NONE',  ( -8.500000000000000000, 1.040949779275250100E-015, -1.649999999999999900 ) ) ;
#140 = DIRECTION ( 'NONE',  ( 1.000000000000000000, 0.0000000000000000000, -0.0000000000000000000 ) ) ;
#141 = PRODUCT ( '97310A114_Oversized Washers', '97310A114_Oversized Washers', '', ( #54 ) ) ;
#142 = PERSON_AND_ORGANIZATION ( #179, #79 ) ;
#143 = DIRECTION ( 'NONE',  ( 1.000000000000000000, 0.0000000000000000000, 0.0000000000000000000 ) ) ;
#144 = EDGE_LOOP ( 'NONE', ( #95, #231 ) ) ;
#145 =( LENGTH_UNIT ( ) NAMED_UNIT ( * ) SI_UNIT ( .MILLI., .METRE. ) );
#146 = DIRECTION ( 'NONE',  ( 0.0000000000000000000, 0.0000000000000000000, 1.000000000000000000 ) ) ;
#147 = COORDINATED_UNIVERSAL_TIME_OFFSET ( 6, 0, .BEHIND. ) ;
#148 = SECURITY_CLASSIFICATION_LEVEL ( 'unclassified' ) ;
#149 = EDGE_CURVE ( 'NONE', #81, #170, #195, .T. ) ;
#150 = COORDINATED_UNIVERSAL_TIME_OFFSET ( 6, 0, .BEHIND. ) ;
#151 = CALENDAR_DATE ( 2022, 18, 2 ) ;
#152 = EDGE_LOOP ( 'NONE', ( #34, #162 ) ) ;
#153 = AXIS2_PLACEMENT_3D ( 'NONE', #88, #125, #71 ) ;
#154 = CIRCLE ( 'NONE', #174, 8.500000000000000000 ) ;
#155 = UNCERTAINTY_MEASURE_WITH_UNIT (LENGTH_MEASURE( 1.000000000000000100E-005 ), #145, 'distance_accuracy_value', 'NONE');
#156 = CARTESIAN_POINT ( 'NONE',  ( 3.200000000000000200, 0.0000000000000000000, -1.649999999999999900 ) ) ;
#157 = DIRECTION ( 'NONE',  ( 0.0000000000000000000, 0.0000000000000000000, 1.000000000000000000 ) ) ;
#158 = DATE_AND_TIME ( #151, #202 ) ;
#159 = CARTESIAN_POINT ( 'NONE',  ( 8.500000000000000000, 0.0000000000000000000, 1.649999999999999900 ) ) ;
#160 = APPLICATION_CONTEXT ( 'configuration controlled 3d designs of mechanical parts and assemblies' ) ;
#161 = APPLICATION_PROTOCOL_DEFINITION ( 'international standard', 'config_control_design', 1994, #183 ) ;
#162 = ORIENTED_EDGE ( 'NONE', *, *, #40, .T. ) ;
#163 = ADVANCED_FACE ( 'NONE', ( #211 ), #44, .T. ) ;
#164 = AXIS2_PLACEMENT_3D ( 'NONE', #131, #70, #222 ) ;
#165 = CC_DESIGN_PERSON_AND_ORGANIZATION_ASSIGNMENT ( #52, #242, ( #11 ) ) ;
#166 = CIRCLE ( 'NONE', #23, 3.200000000000000200 ) ;
#167 = CC_DESIGN_SECURITY_CLASSIFICATION ( #130, ( #80 ) ) ;
#168 = APPROVAL_DATE_TIME ( #48, #178 ) ;
#169 = ORIENTED_EDGE ( 'NONE', *, *, #235, .T. ) ;
#170 = VERTEX_POINT ( 'NONE', #32 ) ;
#171 = ORIENTED_EDGE ( 'NONE', *, *, #116, .F. ) ;
#172 = CARTESIAN_POINT ( 'NONE',  ( 0.0000000000000000000, 0.0000000000000000000, 1.649999999999999900 ) ) ;
#173 = DIRECTION ( 'NONE',  ( 0.0000000000000000000, 0.0000000000000000000, 1.000000000000000000 ) ) ;
#174 = AXIS2_PLACEMENT_3D ( 'NONE', #91, #245, #108 ) ;
#175 = PERSON_AND_ORGANIZATION ( #179, #79 ) ;
#176 = DIRECTION ( 'NONE',  ( 1.000000000000000000, 0.0000000000000000000, 0.0000000000000000000 ) ) ;
#177 = SHAPE_DEFINITION_REPRESENTATION ( #186, #56 ) ;
#178 = APPROVAL ( #1, 'UNSPECIFIED' ) ;
#179 = PERSON ( 'UNSPECIFIED', 'UNSPECIFIED', 'UNSPECIFIED', ('UNSPECIFIED'), ('UNSPECIFIED'), ('UNSPECIFIED') ) ;
#180 = DATE_TIME_ROLE ( 'creation_date' ) ;
#181 = CIRCLE ( 'NONE', #193, 8.500000000000000000 ) ;
#182 = APPROVAL_ROLE ( '' ) ;
#183 = APPLICATION_CONTEXT ( 'configuration controlled 3d designs of mechanical parts and assemblies' ) ;
#184 = EDGE_CURVE ( 'NONE', #29, #113, #154, .T. ) ;
#185 = ADVANCED_FACE ( 'NONE', ( #24 ), #30, .F. ) ;
#186 = PRODUCT_DEFINITION_SHAPE ( 'NONE', 'NONE',  #11 ) ;
#187 = DATE_TIME_ROLE ( 'classification_date' ) ;
#188 = APPROVAL_PERSON_ORGANIZATION ( #214, #26, #182 ) ;
#189 = PERSON_AND_ORGANIZATION_ROLE ( 'design_supplier' ) ;
#190 = VECTOR ( 'NONE', #217, 1000.000000000000000 ) ;
#191 = AXIS2_PLACEMENT_3D ( 'NONE', #55, #37, #225 ) ;
#192 = EDGE_LOOP ( 'NONE', ( #76, #114, #111, #104 ) ) ;
#193 = AXIS2_PLACEMENT_3D ( 'NONE', #226, #206, #129 ) ;
#194 = APPROVAL_PERSON_ORGANIZATION ( #97, #212, #17 ) ;
#195 = CIRCLE ( 'NONE', #31, 8.500000000000000000 ) ;
#196 = AXIS2_PLACEMENT_3D ( 'NONE', #138, #173, #10 ) ;
#197 = PLANE ( 'NONE',  #96 ) ;
#198 = DATE_AND_TIME ( #121, #94 ) ;
#199 = CARTESIAN_POINT ( 'NONE',  ( -8.500000000000000000, 1.040949779275250100E-015, 1.649999999999999900 ) ) ;
#200 = DIRECTION ( 'NONE',  ( 0.0000000000000000000, 0.0000000000000000000, 1.000000000000000000 ) ) ;
#201 = CARTESIAN_POINT ( 'NONE',  ( 8.500000000000000000, 0.0000000000000000000, -1.649999999999999900 ) ) ;
#202 = LOCAL_TIME ( 13, 6, 5.000000000000000000, #150 ) ;
#203 = PERSON_AND_ORGANIZATION_ROLE ( 'design_owner' ) ;
#204 = CLOSED_SHELL ( 'NONE', ( #21, #163, #4, #36, #185, #20 ) ) ;
#205 = MANIFOLD_SOLID_BREP ( 'Boss-Extrude1', #204 ) ;
#206 = DIRECTION ( 'NONE',  ( 0.0000000000000000000, 0.0000000000000000000, 1.000000000000000000 ) ) ;
#207 = CC_DESIGN_APPROVAL ( #26, ( #11 ) ) ;
#208 = CARTESIAN_POINT ( 'NONE',  ( -3.200000000000000200, 3.918869757271530500E-016, -1.649999999999999900 ) ) ;
#209 = AXIS2_PLACEMENT_3D ( 'NONE', #120, #124, #122 ) ;
#210 = DATE_AND_TIME ( #27, #133 ) ;
#211 = FACE_OUTER_BOUND ( 'NONE', #216, .T. ) ;
#212 = APPROVAL ( #126, 'UNSPECIFIED' ) ;
#213 = VERTEX_POINT ( 'NONE', #208 ) ;
#214 = PERSON_AND_ORGANIZATION ( #179, #79 ) ;
#215 = DIRECTION ( 'NONE',  ( 1.000000000000000000, 0.0000000000000000000, 0.0000000000000000000 ) ) ;
#216 = EDGE_LOOP ( 'NONE', ( #169, #244, #128, #136 ) ) ;
#217 = DIRECTION ( 'NONE',  ( 0.0000000000000000000, 0.0000000000000000000, 1.000000000000000000 ) ) ;
#218 = DIRECTION ( 'NONE',  ( 0.0000000000000000000, 0.0000000000000000000, 1.000000000000000000 ) ) ;
#219 = VECTOR ( 'NONE', #146, 1000.000000000000000 ) ;
#220 = APPLICATION_PROTOCOL_DEFINITION ( 'international standard', 'config_control_design', 1994, #160 ) ;
#221 = APPROVAL_STATUS ( 'not_yet_approved' ) ;
#222 = DIRECTION ( 'NONE',  ( 1.000000000000000000, 0.0000000000000000000, 0.0000000000000000000 ) ) ;
#223 = LINE ( 'NONE', #156, #190 ) ;
#224 = VERTEX_POINT ( 'NONE', #247 ) ;
#225 = DIRECTION ( 'NONE',  ( 1.000000000000000000, 0.0000000000000000000, 0.0000000000000000000 ) ) ;
#226 = CARTESIAN_POINT ( 'NONE',  ( 0.0000000000000000000, 0.0000000000000000000, 1.649999999999999900 ) ) ;
#227 = LOCAL_TIME ( 13, 6, 5.000000000000000000, #8 ) ;
#228 = CC_DESIGN_DATE_AND_TIME_ASSIGNMENT ( #210, #187, ( #130 ) ) ;
#229 = PERSON_AND_ORGANIZATION ( #179, #79 ) ;
#230 = EDGE_CURVE ( 'NONE', #113, #29, #181, .T. ) ;
#231 = ORIENTED_EDGE ( 'NONE', *, *, #149, .F. ) ;
#232 = AXIS2_PLACEMENT_3D ( 'NONE', #92, #16, #109 ) ;
#233 = CALENDAR_DATE ( 2022, 18, 2 ) ;
#234 = EDGE_LOOP ( 'NONE', ( #51, #60 ) ) ;
#235 = EDGE_CURVE ( 'NONE', #170, #81, #3, .T. ) ;
#236 = LINE ( 'NONE', #46, #134 ) ;
#237 = CC_DESIGN_APPROVAL ( #178, ( #130 ) ) ;
#238 = EDGE_CURVE ( 'NONE', #213, #224, #249, .T. ) ;
#239 = CYLINDRICAL_SURFACE ( 'NONE', #241, 8.500000000000000000 ) ;
#240 = DIRECTION ( 'NONE',  ( 0.0000000000000000000, 0.0000000000000000000, 1.000000000000000000 ) ) ;
#241 = AXIS2_PLACEMENT_3D ( 'NONE', #65, #200, #176 ) ;
#242 = PERSON_AND_ORGANIZATION_ROLE ( 'creator' ) ;
#243 = VECTOR ( 'NONE', #218, 1000.000000000000000 ) ;
#244 = ORIENTED_EDGE ( 'NONE', *, *, #93, .T. ) ;
#245 = DIRECTION ( 'NONE',  ( 0.0000000000000000000, 0.0000000000000000000, 1.000000000000000000 ) ) ;
#246 = CARTESIAN_POINT ( 'NONE',  ( 0.0000000000000000000, 0.0000000000000000000, -1.649999999999999900 ) ) ;
#247 = CARTESIAN_POINT ( 'NONE',  ( -3.200000000000000200, 3.918869757271530500E-016, 1.649999999999999900 ) ) ;
#248 = CARTESIAN_POINT ( 'NONE',  ( 0.0000000000000000000, 0.0000000000000000000, 1.649999999999999900 ) ) ;
#249 = LINE ( 'NONE', #68, #219 ) ;
ENDSEC;
END-ISO-10303-21;
