ISO-10303-21;
HEADER;
/* Generated by software containing ST-Developer
 * from STEP Tools, Inc. (www.steptools.com) 
 */

FILE_DESCRIPTION(
/* description */ (''),
/* implementation_level */ '2;1');

FILE_NAME(
/* name */ 
'Z:/Modular Solution/A-Profile System/Parts/Hardware/M8FW-0/CAD/M8FW-0.
step',
/* time_stamp */ '2020-11-24T16:24:47-05:00',
/* author */ (''),
/* organization */ (''),
/* preprocessor_version */ 'ST-DEVELOPER v18.1',
/* originating_system */ 'Autodesk Translation Framework v9.3.0.1241',
/* authorisation */ '');

FILE_SCHEMA (('AUTOMOTIVE_DESIGN { 1 0 10303 214 3 1 1 }'));
ENDSEC;

DATA;
#10=MECHANICAL_DESIGN_GEOMETRIC_PRESENTATION_REPRESENTATION('',(#17),#139);
#11=ITEM_DEFINED_TRANSFORMATION($,$,#83,#92);
#12=(
REPRESENTATION_RELATIONSHIP($,$,#150,#149)
REPRESENTATION_RELATIONSHIP_WITH_TRANSFORMATION(#11)
SHAPE_REPRESENTATION_RELATIONSHIP()
);
#13=CONTEXT_DEPENDENT_SHAPE_REPRESENTATION(#12,#148);
#14=NEXT_ASSEMBLY_USAGE_OCCURRENCE('90214A115:1','90214A115:1',
'90214A115:1',#152,#153,'90214A115:1');
#15=SHAPE_REPRESENTATION_RELATIONSHIP('SRR','None',#150,#16);
#16=ADVANCED_BREP_SHAPE_REPRESENTATION('',(#18),#138);
#17=STYLED_ITEM('',(#164),#18);
#18=MANIFOLD_SOLID_BREP('Body1',#69);
#19=FACE_BOUND('',#30,.T.);
#20=FACE_BOUND('',#32,.T.);
#21=PLANE('',#90);
#22=PLANE('',#91);
#23=FACE_OUTER_BOUND('',#27,.T.);
#24=FACE_OUTER_BOUND('',#28,.T.);
#25=FACE_OUTER_BOUND('',#29,.T.);
#26=FACE_OUTER_BOUND('',#31,.T.);
#27=EDGE_LOOP('',(#51,#52,#53,#54));
#28=EDGE_LOOP('',(#55,#56,#57,#58));
#29=EDGE_LOOP('',(#59));
#30=EDGE_LOOP('',(#60));
#31=EDGE_LOOP('',(#61));
#32=EDGE_LOOP('',(#62));
#33=LINE('',#123,#35);
#34=LINE('',#129,#36);
#35=VECTOR('',#101,4.);
#36=VECTOR('',#108,7.);
#37=CIRCLE('',#85,4.);
#38=CIRCLE('',#86,4.);
#39=CIRCLE('',#88,24.);
#40=CIRCLE('',#89,24.);
#41=VERTEX_POINT('',#120);
#42=VERTEX_POINT('',#122);
#43=VERTEX_POINT('',#126);
#44=VERTEX_POINT('',#128);
#45=EDGE_CURVE('',#41,#41,#37,.T.);
#46=EDGE_CURVE('',#41,#42,#33,.T.);
#47=EDGE_CURVE('',#42,#42,#38,.T.);
#48=EDGE_CURVE('',#43,#43,#39,.F.);
#49=EDGE_CURVE('',#43,#44,#34,.T.);
#50=EDGE_CURVE('',#44,#44,#40,.F.);
#51=ORIENTED_EDGE('',*,*,#45,.F.);
#52=ORIENTED_EDGE('',*,*,#46,.T.);
#53=ORIENTED_EDGE('',*,*,#47,.T.);
#54=ORIENTED_EDGE('',*,*,#46,.F.);
#55=ORIENTED_EDGE('',*,*,#48,.T.);
#56=ORIENTED_EDGE('',*,*,#49,.T.);
#57=ORIENTED_EDGE('',*,*,#50,.F.);
#58=ORIENTED_EDGE('',*,*,#49,.F.);
#59=ORIENTED_EDGE('',*,*,#50,.T.);
#60=ORIENTED_EDGE('',*,*,#47,.F.);
#61=ORIENTED_EDGE('',*,*,#48,.F.);
#62=ORIENTED_EDGE('',*,*,#45,.T.);
#63=CYLINDRICAL_SURFACE('',#84,4.);
#64=CYLINDRICAL_SURFACE('',#87,24.);
#65=ADVANCED_FACE('',(#23),#63,.F.);
#66=ADVANCED_FACE('',(#24),#64,.T.);
#67=ADVANCED_FACE('',(#25,#19),#21,.T.);
#68=ADVANCED_FACE('',(#26,#20),#22,.F.);
#69=CLOSED_SHELL('',(#65,#66,#67,#68));
#70=DERIVED_UNIT_ELEMENT(#72,1.);
#71=DERIVED_UNIT_ELEMENT(#141,3.);
#72=(
MASS_UNIT()
NAMED_UNIT(*)
SI_UNIT(.KILO.,.GRAM.)
);
#73=DERIVED_UNIT((#70,#71));
#74=MEASURE_REPRESENTATION_ITEM('density measure',
POSITIVE_RATIO_MEASURE(7850.),#73);
#75=PROPERTY_DEFINITION_REPRESENTATION(#80,#77);
#76=PROPERTY_DEFINITION_REPRESENTATION(#81,#78);
#77=REPRESENTATION('material name',(#79),#138);
#78=REPRESENTATION('density',(#74),#138);
#79=DESCRIPTIVE_REPRESENTATION_ITEM('Steel','Steel');
#80=PROPERTY_DEFINITION('material property','material name',#153);
#81=PROPERTY_DEFINITION('material property','density of part',#153);
#82=AXIS2_PLACEMENT_3D('placement',#117,#93,#94);
#83=AXIS2_PLACEMENT_3D('placement',#118,#95,#96);
#84=AXIS2_PLACEMENT_3D('',#119,#97,#98);
#85=AXIS2_PLACEMENT_3D('',#121,#99,#100);
#86=AXIS2_PLACEMENT_3D('',#124,#102,#103);
#87=AXIS2_PLACEMENT_3D('',#125,#104,#105);
#88=AXIS2_PLACEMENT_3D('',#127,#106,#107);
#89=AXIS2_PLACEMENT_3D('',#130,#109,#110);
#90=AXIS2_PLACEMENT_3D('',#131,#111,#112);
#91=AXIS2_PLACEMENT_3D('',#132,#113,#114);
#92=AXIS2_PLACEMENT_3D('',#133,#115,#116);
#93=DIRECTION('axis',(0.,0.,1.));
#94=DIRECTION('refdir',(1.,0.,0.));
#95=DIRECTION('axis',(0.,0.,1.));
#96=DIRECTION('refdir',(1.,0.,0.));
#97=DIRECTION('center_axis',(0.,-2.22044604925031E-16,-1.));
#98=DIRECTION('ref_axis',(0.,1.,-2.22044604925031E-16));
#99=DIRECTION('center_axis',(0.,-2.22044604925031E-16,-1.));
#100=DIRECTION('ref_axis',(0.,1.,-2.22044604925031E-16));
#101=DIRECTION('',(0.,-2.22044604925031E-16,-1.));
#102=DIRECTION('center_axis',(0.,-2.22044604925031E-16,-1.));
#103=DIRECTION('ref_axis',(0.,1.,-2.22044604925031E-16));
#104=DIRECTION('center_axis',(0.,2.22044604925031E-16,1.));
#105=DIRECTION('ref_axis',(0.,-1.,2.22044604925031E-16));
#106=DIRECTION('center_axis',(0.,2.22044604925031E-16,1.));
#107=DIRECTION('ref_axis',(0.,-1.,2.22044604925031E-16));
#108=DIRECTION('',(0.,-2.22044604925031E-16,-1.));
#109=DIRECTION('center_axis',(0.,2.22044604925031E-16,1.));
#110=DIRECTION('ref_axis',(0.,-1.,2.22044604925031E-16));
#111=DIRECTION('center_axis',(0.,-2.22044604925031E-16,-1.));
#112=DIRECTION('ref_axis',(0.,1.,-2.22044604925031E-16));
#113=DIRECTION('center_axis',(0.,-2.22044604925031E-16,-1.));
#114=DIRECTION('ref_axis',(0.,1.,-2.22044604925031E-16));
#115=DIRECTION('',(0.,0.,1.));
#116=DIRECTION('',(1.,0.,0.));
#117=CARTESIAN_POINT('',(0.,0.,0.));
#118=CARTESIAN_POINT('',(0.,0.,0.));
#119=CARTESIAN_POINT('Origin',(0.,0.,0.));
#120=CARTESIAN_POINT('',(-4.89858719658941E-16,-4.,8.88178419700125E-16));
#121=CARTESIAN_POINT('Origin',(0.,0.,0.));
#122=CARTESIAN_POINT('',(-4.89858719658941E-16,-4.,-2.4));
#123=CARTESIAN_POINT('',(-4.89858719658941E-16,-4.,8.88178419700125E-16));
#124=CARTESIAN_POINT('Origin',(0.,-5.32907051820075E-16,-2.4));
#125=CARTESIAN_POINT('Origin',(0.,-2.22044604925031E-17,-0.1));
#126=CARTESIAN_POINT('',(-2.93915231795365E-15,24.,-5.32907051820075E-15));
#127=CARTESIAN_POINT('Origin',(0.,0.,0.));
#128=CARTESIAN_POINT('',(-2.93915231795365E-15,24.,-2.40000000000001));
#129=CARTESIAN_POINT('',(-2.93915231795365E-15,24.,-0.100000000000005));
#130=CARTESIAN_POINT('Origin',(0.,-5.32907051820075E-16,-2.4));
#131=CARTESIAN_POINT('Origin',(0.,-5.32907051820075E-16,-2.4));
#132=CARTESIAN_POINT('Origin',(0.,0.,0.));
#133=CARTESIAN_POINT('',(0.,0.,0.));
#134=UNCERTAINTY_MEASURE_WITH_UNIT(LENGTH_MEASURE(0.01),#140,
'DISTANCE_ACCURACY_VALUE',
'Maximum model space distance between geometric entities at asserted c
onnectivities');
#135=UNCERTAINTY_MEASURE_WITH_UNIT(LENGTH_MEASURE(0.01),#140,
'DISTANCE_ACCURACY_VALUE',
'Maximum model space distance between geometric entities at asserted c
onnectivities');
#136=UNCERTAINTY_MEASURE_WITH_UNIT(LENGTH_MEASURE(0.01),#140,
'DISTANCE_ACCURACY_VALUE',
'Maximum model space distance between geometric entities at asserted c
onnectivities');
#137=(
GEOMETRIC_REPRESENTATION_CONTEXT(3)
GLOBAL_UNCERTAINTY_ASSIGNED_CONTEXT((#134))
GLOBAL_UNIT_ASSIGNED_CONTEXT((#140,#142,#143))
REPRESENTATION_CONTEXT('','3D')
);
#138=(
GEOMETRIC_REPRESENTATION_CONTEXT(3)
GLOBAL_UNCERTAINTY_ASSIGNED_CONTEXT((#135))
GLOBAL_UNIT_ASSIGNED_CONTEXT((#140,#142,#143))
REPRESENTATION_CONTEXT('','3D')
);
#139=(
GEOMETRIC_REPRESENTATION_CONTEXT(3)
GLOBAL_UNCERTAINTY_ASSIGNED_CONTEXT((#136))
GLOBAL_UNIT_ASSIGNED_CONTEXT((#140,#142,#143))
REPRESENTATION_CONTEXT('','3D')
);
#140=(
LENGTH_UNIT()
NAMED_UNIT(*)
SI_UNIT(.MILLI.,.METRE.)
);
#141=(
LENGTH_UNIT()
NAMED_UNIT(*)
SI_UNIT($,.METRE.)
);
#142=(
NAMED_UNIT(*)
PLANE_ANGLE_UNIT()
SI_UNIT($,.RADIAN.)
);
#143=(
NAMED_UNIT(*)
SI_UNIT($,.STERADIAN.)
SOLID_ANGLE_UNIT()
);
#144=SHAPE_DEFINITION_REPRESENTATION(#146,#149);
#145=SHAPE_DEFINITION_REPRESENTATION(#147,#150);
#146=PRODUCT_DEFINITION_SHAPE('',$,#152);
#147=PRODUCT_DEFINITION_SHAPE('',$,#153);
#148=PRODUCT_DEFINITION_SHAPE($,$,#14);
#149=SHAPE_REPRESENTATION('',(#82,#92),#137);
#150=SHAPE_REPRESENTATION('',(#83),#138);
#151=PRODUCT_DEFINITION_CONTEXT('part definition',#159,'design');
#152=PRODUCT_DEFINITION('M8FW-0','M8FW-0 v2',#154,#151);
#153=PRODUCT_DEFINITION('90214A115','90214A115',#155,#151);
#154=PRODUCT_DEFINITION_FORMATION('',$,#161);
#155=PRODUCT_DEFINITION_FORMATION('',$,#162);
#156=PRODUCT_RELATED_PRODUCT_CATEGORY('M8FW-0 v2','M8FW-0 v2',(#161));
#157=PRODUCT_RELATED_PRODUCT_CATEGORY('90214A115','90214A115',(#162));
#158=APPLICATION_PROTOCOL_DEFINITION('international standard',
'automotive_design',2009,#159);
#159=APPLICATION_CONTEXT(
'Core Data for Automotive Mechanical Design Process');
#160=PRODUCT_CONTEXT('part definition',#159,'mechanical');
#161=PRODUCT('M8FW-0','M8FW-0 v2',$,(#160));
#162=PRODUCT('90214A115','90214A115',$,(#160));
#163=PRESENTATION_STYLE_ASSIGNMENT((#165));
#164=PRESENTATION_STYLE_ASSIGNMENT((#166));
#165=SURFACE_STYLE_USAGE(.BOTH.,#167);
#166=SURFACE_STYLE_USAGE(.BOTH.,#168);
#167=SURFACE_SIDE_STYLE('',(#169));
#168=SURFACE_SIDE_STYLE('',(#170));
#169=SURFACE_STYLE_FILL_AREA(#171);
#170=SURFACE_STYLE_FILL_AREA(#172);
#171=FILL_AREA_STYLE('Steel - Satin',(#173));
#172=FILL_AREA_STYLE('Stainless Steel - Polished',(#174));
#173=FILL_AREA_STYLE_COLOUR('Steel - Satin',#175);
#174=FILL_AREA_STYLE_COLOUR('Stainless Steel - Polished',#176);
#175=COLOUR_RGB('Steel - Satin',0.627450980392157,0.627450980392157,0.627450980392157);
#176=COLOUR_RGB('Stainless Steel - Polished',0.796078431372549,0.796078431372549,
0.796078431372549);
ENDSEC;
END-ISO-10303-21;
