ISO-10303-21;
HEADER;
/* Generated by software containing ST-Developer
 * from STEP Tools, Inc. (www.steptools.com) 
 */

FILE_DESCRIPTION(
/* description */ (''),
/* implementation_level */ '2;1');

FILE_NAME(
/* name */ 'Z:/Part Files/Hardware/M8SW-0/M8SW-0 v1.step',
/* time_stamp */ '2020-09-15T11:38:07-04:00',
/* author */ (''),
/* organization */ (''),
/* preprocessor_version */ 'ST-DEVELOPER v18.1',
/* originating_system */ 'Autodesk Translation Framework v9.3.0.1241',
/* authorisation */ '');

FILE_SCHEMA (('AUTOMOTIVE_DESIGN { 1 0 10303 214 3 1 1 }'));
ENDSEC;

DATA;
#10=MECHANICAL_DESIGN_GEOMETRIC_PRESENTATION_REPRESENTATION('',(#13),#222);
#11=SHAPE_REPRESENTATION_RELATIONSHIP('SRR','None',#229,#12);
#12=ADVANCED_BREP_SHAPE_REPRESENTATION('',(#14),#221);
#13=STYLED_ITEM('',(#239),#14);
#14=MANIFOLD_SOLID_BREP('Body1',#130);
#15=FACE_BOUND('',#32,.T.);
#16=FACE_BOUND('',#34,.T.);
#17=PLANE('',#147);
#18=PLANE('',#148);
#19=PLANE('',#149);
#20=PLANE('',#150);
#21=PLANE('',#151);
#22=PLANE('',#152);
#23=FACE_OUTER_BOUND('',#30,.T.);
#24=FACE_OUTER_BOUND('',#31,.T.);
#25=FACE_OUTER_BOUND('',#33,.T.);
#26=FACE_OUTER_BOUND('',#35,.T.);
#27=FACE_OUTER_BOUND('',#36,.T.);
#28=FACE_OUTER_BOUND('',#37,.T.);
#29=FACE_OUTER_BOUND('',#38,.T.);
#30=EDGE_LOOP('',(#92,#93,#94,#95));
#31=EDGE_LOOP('',(#96,#97,#98,#99));
#32=EDGE_LOOP('',(#100));
#33=EDGE_LOOP('',(#101,#102,#103,#104));
#34=EDGE_LOOP('',(#105));
#35=EDGE_LOOP('',(#106,#107,#108,#109));
#36=EDGE_LOOP('',(#110,#111,#112,#113));
#37=EDGE_LOOP('',(#114,#115,#116,#117));
#38=EDGE_LOOP('',(#118,#119,#120,#121));
#39=LINE('',#191,#52);
#40=LINE('',#196,#53);
#41=LINE('',#198,#54);
#42=LINE('',#200,#55);
#43=LINE('',#201,#56);
#44=LINE('',#205,#57);
#45=LINE('',#207,#58);
#46=LINE('',#209,#59);
#47=LINE('',#210,#60);
#48=LINE('',#212,#61);
#49=LINE('',#213,#62);
#50=LINE('',#215,#63);
#51=LINE('',#217,#64);
#52=VECTOR('',#159,4.05);
#53=VECTOR('',#164,1.);
#54=VECTOR('',#165,1.);
#55=VECTOR('',#166,1.);
#56=VECTOR('',#167,1.);
#57=VECTOR('',#170,1.);
#58=VECTOR('',#171,1.);
#59=VECTOR('',#172,1.);
#60=VECTOR('',#173,1.);
#61=VECTOR('',#176,1.);
#62=VECTOR('',#177,1.);
#63=VECTOR('',#180,1.);
#64=VECTOR('',#183,1.);
#65=CIRCLE('',#145,4.05);
#66=CIRCLE('',#146,4.05);
#67=VERTEX_POINT('',#188);
#68=VERTEX_POINT('',#190);
#69=VERTEX_POINT('',#194);
#70=VERTEX_POINT('',#195);
#71=VERTEX_POINT('',#197);
#72=VERTEX_POINT('',#199);
#73=VERTEX_POINT('',#203);
#74=VERTEX_POINT('',#204);
#75=VERTEX_POINT('',#206);
#76=VERTEX_POINT('',#208);
#77=EDGE_CURVE('',#67,#67,#65,.T.);
#78=EDGE_CURVE('',#67,#68,#39,.T.);
#79=EDGE_CURVE('',#68,#68,#66,.T.);
#80=EDGE_CURVE('',#69,#70,#40,.T.);
#81=EDGE_CURVE('',#70,#71,#41,.T.);
#82=EDGE_CURVE('',#71,#72,#42,.T.);
#83=EDGE_CURVE('',#72,#69,#43,.T.);
#84=EDGE_CURVE('',#73,#74,#44,.T.);
#85=EDGE_CURVE('',#74,#75,#45,.T.);
#86=EDGE_CURVE('',#75,#76,#46,.T.);
#87=EDGE_CURVE('',#76,#73,#47,.T.);
#88=EDGE_CURVE('',#72,#75,#48,.T.);
#89=EDGE_CURVE('',#69,#74,#49,.T.);
#90=EDGE_CURVE('',#71,#76,#50,.T.);
#91=EDGE_CURVE('',#70,#73,#51,.T.);
#92=ORIENTED_EDGE('',*,*,#77,.F.);
#93=ORIENTED_EDGE('',*,*,#78,.T.);
#94=ORIENTED_EDGE('',*,*,#79,.F.);
#95=ORIENTED_EDGE('',*,*,#78,.F.);
#96=ORIENTED_EDGE('',*,*,#80,.T.);
#97=ORIENTED_EDGE('',*,*,#81,.T.);
#98=ORIENTED_EDGE('',*,*,#82,.T.);
#99=ORIENTED_EDGE('',*,*,#83,.T.);
#100=ORIENTED_EDGE('',*,*,#79,.T.);
#101=ORIENTED_EDGE('',*,*,#84,.T.);
#102=ORIENTED_EDGE('',*,*,#85,.T.);
#103=ORIENTED_EDGE('',*,*,#86,.T.);
#104=ORIENTED_EDGE('',*,*,#87,.T.);
#105=ORIENTED_EDGE('',*,*,#77,.T.);
#106=ORIENTED_EDGE('',*,*,#88,.T.);
#107=ORIENTED_EDGE('',*,*,#85,.F.);
#108=ORIENTED_EDGE('',*,*,#89,.F.);
#109=ORIENTED_EDGE('',*,*,#83,.F.);
#110=ORIENTED_EDGE('',*,*,#90,.T.);
#111=ORIENTED_EDGE('',*,*,#86,.F.);
#112=ORIENTED_EDGE('',*,*,#88,.F.);
#113=ORIENTED_EDGE('',*,*,#82,.F.);
#114=ORIENTED_EDGE('',*,*,#91,.T.);
#115=ORIENTED_EDGE('',*,*,#87,.F.);
#116=ORIENTED_EDGE('',*,*,#90,.F.);
#117=ORIENTED_EDGE('',*,*,#81,.F.);
#118=ORIENTED_EDGE('',*,*,#89,.T.);
#119=ORIENTED_EDGE('',*,*,#84,.F.);
#120=ORIENTED_EDGE('',*,*,#91,.F.);
#121=ORIENTED_EDGE('',*,*,#80,.F.);
#122=CYLINDRICAL_SURFACE('',#144,4.05);
#123=ADVANCED_FACE('',(#23),#122,.F.);
#124=ADVANCED_FACE('',(#24,#15),#17,.T.);
#125=ADVANCED_FACE('',(#25,#16),#18,.F.);
#126=ADVANCED_FACE('',(#26),#19,.F.);
#127=ADVANCED_FACE('',(#27),#20,.F.);
#128=ADVANCED_FACE('',(#28),#21,.F.);
#129=ADVANCED_FACE('',(#29),#22,.F.);
#130=CLOSED_SHELL('',(#123,#124,#125,#126,#127,#128,#129));
#131=DERIVED_UNIT_ELEMENT(#133,1.);
#132=DERIVED_UNIT_ELEMENT(#224,3.);
#133=(
MASS_UNIT()
NAMED_UNIT(*)
SI_UNIT(.KILO.,.GRAM.)
);
#134=DERIVED_UNIT((#131,#132));
#135=MEASURE_REPRESENTATION_ITEM('density measure',
POSITIVE_RATIO_MEASURE(7850.),#134);
#136=PROPERTY_DEFINITION_REPRESENTATION(#141,#138);
#137=PROPERTY_DEFINITION_REPRESENTATION(#142,#139);
#138=REPRESENTATION('material name',(#140),#221);
#139=REPRESENTATION('density',(#135),#221);
#140=DESCRIPTIVE_REPRESENTATION_ITEM('Steel','Steel');
#141=PROPERTY_DEFINITION('material property','material name',#231);
#142=PROPERTY_DEFINITION('material property','density of part',#231);
#143=AXIS2_PLACEMENT_3D('placement',#186,#153,#154);
#144=AXIS2_PLACEMENT_3D('',#187,#155,#156);
#145=AXIS2_PLACEMENT_3D('',#189,#157,#158);
#146=AXIS2_PLACEMENT_3D('',#192,#160,#161);
#147=AXIS2_PLACEMENT_3D('',#193,#162,#163);
#148=AXIS2_PLACEMENT_3D('',#202,#168,#169);
#149=AXIS2_PLACEMENT_3D('',#211,#174,#175);
#150=AXIS2_PLACEMENT_3D('',#214,#178,#179);
#151=AXIS2_PLACEMENT_3D('',#216,#181,#182);
#152=AXIS2_PLACEMENT_3D('',#218,#184,#185);
#153=DIRECTION('axis',(0.,0.,1.));
#154=DIRECTION('refdir',(1.,0.,0.));
#155=DIRECTION('center_axis',(0.,0.,1.));
#156=DIRECTION('ref_axis',(1.,0.,0.));
#157=DIRECTION('center_axis',(0.,0.,1.));
#158=DIRECTION('ref_axis',(1.,0.,0.));
#159=DIRECTION('',(0.,0.,1.));
#160=DIRECTION('center_axis',(0.,0.,-1.));
#161=DIRECTION('ref_axis',(1.,0.,0.));
#162=DIRECTION('center_axis',(0.,0.,1.));
#163=DIRECTION('ref_axis',(1.,0.,0.));
#164=DIRECTION('',(0.,1.,0.));
#165=DIRECTION('',(-1.,0.,0.));
#166=DIRECTION('',(0.,-1.,0.));
#167=DIRECTION('',(1.,0.,0.));
#168=DIRECTION('center_axis',(0.,0.,1.));
#169=DIRECTION('ref_axis',(1.,0.,0.));
#170=DIRECTION('',(0.,-1.,0.));
#171=DIRECTION('',(-1.,0.,0.));
#172=DIRECTION('',(0.,1.,0.));
#173=DIRECTION('',(1.,0.,0.));
#174=DIRECTION('center_axis',(0.,1.,0.));
#175=DIRECTION('ref_axis',(0.,0.,1.));
#176=DIRECTION('',(0.,0.,-1.));
#177=DIRECTION('',(0.,0.,-1.));
#178=DIRECTION('center_axis',(1.,0.,0.));
#179=DIRECTION('ref_axis',(0.,0.,-1.));
#180=DIRECTION('',(0.,0.,-1.));
#181=DIRECTION('center_axis',(0.,-1.,0.));
#182=DIRECTION('ref_axis',(0.,0.,-1.));
#183=DIRECTION('',(0.,0.,-1.));
#184=DIRECTION('center_axis',(-1.,0.,0.));
#185=DIRECTION('ref_axis',(0.,0.,1.));
#186=CARTESIAN_POINT('',(0.,0.,0.));
#187=CARTESIAN_POINT('Origin',(0.,0.,1.));
#188=CARTESIAN_POINT('',(-4.05,4.95965573298063E-16,0.));
#189=CARTESIAN_POINT('Origin',(0.,0.,0.));
#190=CARTESIAN_POINT('',(-4.05,4.95965573298063E-16,2.));
#191=CARTESIAN_POINT('',(-4.05,-4.95981953654678E-16,1.));
#192=CARTESIAN_POINT('Origin',(0.,0.,2.));
#193=CARTESIAN_POINT('Origin',(0.,0.,2.));
#194=CARTESIAN_POINT('',(6.5,-6.5,2.));
#195=CARTESIAN_POINT('',(6.5,6.5,2.));
#196=CARTESIAN_POINT('',(6.5,0.,2.));
#197=CARTESIAN_POINT('',(-6.5,6.5,2.));
#198=CARTESIAN_POINT('',(0.,6.5,2.));
#199=CARTESIAN_POINT('',(-6.5,-6.5,2.));
#200=CARTESIAN_POINT('',(-6.5,0.,2.));
#201=CARTESIAN_POINT('',(0.,-6.5,2.));
#202=CARTESIAN_POINT('Origin',(0.,0.,0.));
#203=CARTESIAN_POINT('',(6.5,6.5,0.));
#204=CARTESIAN_POINT('',(6.5,-6.5,0.));
#205=CARTESIAN_POINT('',(6.5,0.,0.));
#206=CARTESIAN_POINT('',(-6.5,-6.5,0.));
#207=CARTESIAN_POINT('',(0.,-6.5,0.));
#208=CARTESIAN_POINT('',(-6.5,6.5,0.));
#209=CARTESIAN_POINT('',(-6.5,0.,0.));
#210=CARTESIAN_POINT('',(0.,6.5,0.));
#211=CARTESIAN_POINT('Origin',(0.,-6.5,1.));
#212=CARTESIAN_POINT('',(-6.5,-6.5,1.));
#213=CARTESIAN_POINT('',(6.5,-6.5,1.));
#214=CARTESIAN_POINT('Origin',(-6.5,0.,1.));
#215=CARTESIAN_POINT('',(-6.5,6.5,1.));
#216=CARTESIAN_POINT('Origin',(0.,6.5,1.));
#217=CARTESIAN_POINT('',(6.5,6.5,1.));
#218=CARTESIAN_POINT('Origin',(6.5,0.,1.));
#219=UNCERTAINTY_MEASURE_WITH_UNIT(LENGTH_MEASURE(0.01),#223,
'DISTANCE_ACCURACY_VALUE',
'Maximum model space distance between geometric entities at asserted c
onnectivities');
#220=UNCERTAINTY_MEASURE_WITH_UNIT(LENGTH_MEASURE(0.01),#223,
'DISTANCE_ACCURACY_VALUE',
'Maximum model space distance between geometric entities at asserted c
onnectivities');
#221=(
GEOMETRIC_REPRESENTATION_CONTEXT(3)
GLOBAL_UNCERTAINTY_ASSIGNED_CONTEXT((#219))
GLOBAL_UNIT_ASSIGNED_CONTEXT((#223,#225,#226))
REPRESENTATION_CONTEXT('','3D')
);
#222=(
GEOMETRIC_REPRESENTATION_CONTEXT(3)
GLOBAL_UNCERTAINTY_ASSIGNED_CONTEXT((#220))
GLOBAL_UNIT_ASSIGNED_CONTEXT((#223,#225,#226))
REPRESENTATION_CONTEXT('','3D')
);
#223=(
LENGTH_UNIT()
NAMED_UNIT(*)
SI_UNIT(.MILLI.,.METRE.)
);
#224=(
LENGTH_UNIT()
NAMED_UNIT(*)
SI_UNIT($,.METRE.)
);
#225=(
NAMED_UNIT(*)
PLANE_ANGLE_UNIT()
SI_UNIT($,.RADIAN.)
);
#226=(
NAMED_UNIT(*)
SI_UNIT($,.STERADIAN.)
SOLID_ANGLE_UNIT()
);
#227=SHAPE_DEFINITION_REPRESENTATION(#228,#229);
#228=PRODUCT_DEFINITION_SHAPE('',$,#231);
#229=SHAPE_REPRESENTATION('',(#143),#221);
#230=PRODUCT_DEFINITION_CONTEXT('part definition',#235,'design');
#231=PRODUCT_DEFINITION('M8SW-0','M8SW-0 v1',#232,#230);
#232=PRODUCT_DEFINITION_FORMATION('',$,#237);
#233=PRODUCT_RELATED_PRODUCT_CATEGORY('M8SW-0 v1','M8SW-0 v1',(#237));
#234=APPLICATION_PROTOCOL_DEFINITION('international standard',
'automotive_design',2009,#235);
#235=APPLICATION_CONTEXT(
'Core Data for Automotive Mechanical Design Process');
#236=PRODUCT_CONTEXT('part definition',#235,'mechanical');
#237=PRODUCT('M8SW-0','M8SW-0 v1',$,(#236));
#238=PRESENTATION_STYLE_ASSIGNMENT((#240));
#239=PRESENTATION_STYLE_ASSIGNMENT((#241));
#240=SURFACE_STYLE_USAGE(.BOTH.,#242);
#241=SURFACE_STYLE_USAGE(.BOTH.,#243);
#242=SURFACE_SIDE_STYLE('',(#244));
#243=SURFACE_SIDE_STYLE('',(#245));
#244=SURFACE_STYLE_FILL_AREA(#246);
#245=SURFACE_STYLE_FILL_AREA(#247);
#246=FILL_AREA_STYLE('Steel - Satin',(#248));
#247=FILL_AREA_STYLE('Stainless Steel - Polished',(#249));
#248=FILL_AREA_STYLE_COLOUR('Steel - Satin',#250);
#249=FILL_AREA_STYLE_COLOUR('Stainless Steel - Polished',#251);
#250=COLOUR_RGB('Steel - Satin',0.627450980392157,0.627450980392157,0.627450980392157);
#251=COLOUR_RGB('Stainless Steel - Polished',0.796078431372549,0.796078431372549,
0.796078431372549);
ENDSEC;
END-ISO-10303-21;
